A B C D E F G H I J K L M N O P Q R S T U V X Y Z 0-9
Joe Satriani

Início > Joe Satria... > acordes

Joe Satriani

Cryin'

Dificultad:ExpertoExperto

tuner corregir añadir para songbook version para impresion version de texto version rtf e-mail
acordestablaturabajobateríaarmónicaflautacavacopiano Guitar Pro
acordes

Cryin'

	   
Legenda: 
b - bend 
(12) - nota fantasma (bend) 
(H) - harnônica 
h - hammer 
p - pull-off 
/ - slide p/ cima 
 - slide p/ baixo 
~ - vibrato 
. - tocar abafado (palm-muted) 
 
 
    pre-bend                                pre-bend 
E|----------------------------------------|--------------------------------| 
B|----------------------------------------|--------------------------------| 
G|--(12)b11-9--11b~-p9---------9--9-------|--(12)b11-p9--11b---------9/4~~-| 
D|---------------------11-9-11------11p9~-|--------------------9/11~-------| 
A|----------------------------------------|--------------------------------| 
E|----------------------------------------|--------------------------------| 
 
    pre-bend 
E|----------------------------------------|----------------------| 
B|----------------------------------------|----------------------| 
G|--(12)b11-9--11b~-p9---------9--9-------|--84/6~-6/96~-4-4--| 
D|---------------------11-9-11------11p9~-|----------------------| 
A|----------------------------------------|----------------------| 
E|----------------------------------------|----------------------| 
 
    pre-bend                                       pre-bend 
E|----------------------------------------------|--------------17-17~~~~-17b-17b--| 
 
B|--(20)b19-17--19b~-p17----------17~-17--------|--(20)b19-17---------------------| 
G|-----------------------18-16-18--------18-16~-|---------------------------------| 
D|----------------------------------------------|---------------------------------| 
A|----------------------------------------------|---------------------------------| 
E|----------------------------------------------|---------------------------------| 
                         ........ 
    pre-bend 
E|----------------------------------------------|--------------------------| 
B|--(20)b19-17--19b~-p17----------17~-17--------|--16~1412/14--14-17-14~~| 
G|-----------------------18-16-18--------18-16~-|--------------------------| 
D|----------------------------------------------|--------------------------| 
A|----------------------------------------------|--------------------------| 
E|----------------------------------------------|--------------------------| 
 
 
E|-----17b----17b-------------16b-------------|-----17b----17b-------------19b~19-16b~----------| 
B|--17-----17------16-17~--17-----17b-17b-17~~|--17-----17------16-17~--17-------------17bb-17~-| 
G|--------------------------------------------|-------------------------------------------------| 
D|--------------------------------------------|-------------------------------------------------| 
A|--------------------------------------------|-------------------------------------------------| 
E|--------------------------------------------|-------------------------------------------------| 
 
 
E|----------------------------------------------|---------------------------------------| 
B|----------------------------------------------|---------------------------------------| 
G|----------------------------------------------|---------------------------------------| 
D|------2~-4-2-4-2-4b(6)-2------2~-2------------|------2~-4-2-4-2-4b(6)-2---------------| 
A|--2-4---------------------2-4------4-2--------|--2-4---------------------2/4~~-4/72--| 
E|---------------------------------------2b-p0--|---------------------------------------| 
           .......                                        ....... 
                                                                         pre-bend 
E|----------------------------------------------------------------9----------------------| 
B|--------------------------------------------------------------9---12p9------------12b~~| 
G|--------------------------------------------------4-4-6p4-11b----------11b-9-11-9------| 
D|------2~-4-2-4-2-4b(6)-2------2~--------2-4-2-4/6--------------------------------------| 
A|--2-4---------------------2-4----4p2--4------------------------------------------------| 
E|---------------------------------------------------------------------------------------| 
           ....... 
 
E|-----17b----17b------------16b-----------------------| 
B|--17-----17------16-17~-17-----17b-17b-17~~----------| 
G|-------------------------------------------1816/18~~| 
D|-----------------------------------------------------| 
A|-----------------------------------------------------| 
E|-----------------------------------------------------| 
 
 
E|-----17b----17b------------19b-16b----------|-------------------| 
B|--17-----17------16-17~-17---------17bb-17~-|--17-15-17~~-/20--| 
G|--------------------------------------------|-------------------| 
D|--------------------------------------------|-------------------| 
A|--------------------------------------------|-------------------| 
E|--------------------------------------------|-------------------| 
 
                                           (H) 
E|--/15-12----12----------------------------------------|---------| 
B|---------15-------------------------------------------|---------| 
G|---------------14b-p12-14~~-p12---------14b-p12-14b---|---------| 
D|--------------------------------h14p12~---------------|---------| 
A|------------------------------------------------------|----2/4~~| 
E|------------------------------------------------------|-12-----| 
 
                                                (bend 1/2) 
E|---------------------------------|-----------------------------------------| 
B|-------------7/9/12-11~h12-12--|--12/14-14-12----------------------------| 
G|--4/6~/8/9---------------------|--------------13b-11p9/11~~-8bbb-4-4/6~~| 
D|---------------------------------|-----------------------------------------| 
A|---------------------------------|-----------------------------------------| 
E|---------------------------------|-----------------------------------------| 
 
                                                       pre-bend 
E|---------------------------------|--------11-12-14b--(15)b14p12-14--| 
B|-------------7/9/12-11~h12-12--|--12/14---------------------------| 
G|--4/6~/8/9---------------------|----------------------------------| 
D|---------------------------------|----------------------------------| 
A|---------------------------------|----------------------------------| 
E|---------------------------------|----------------------------------| 
 
 
E|--12p11p97-9---7p5p4-------4-------------------------------------| 
B|----------------------7-5-7---5-4--------4-5---4------------------| 
G|----------------------------------4/6--6-----6---4-6-4------------| 
D|-------------------------------------------------------7-6-4-6-6--| 
A|------------------------------------------------------------------| 
E|------------------------------------------------------------------| 
 
 
E|--------------------------------------------| 
B|--------------------------------------------| 
G|--------------------------------------------| 
D|--2h4h6-------2h4h6~-6p4p2------------------| 
A|--------2h4h6--------------6p4p2------------| 
E|---------------------------------4p2p0~~~~--| 
                                      (fade out...) 
 
Transcrito por Caetano Sauer 
(csauer@ieg.com.br) 
 
_______________________________________________________ 
Contribuição: Caetano Sauer(csauer@ieg.com.br) 
	  

Solicitar el vídeo de "Cryin'" - Descargar Cryin' mp3

No existe una video leccione para esta canción

solicitar
140

Envie sus comentários.

0 comentários

 
LosAcordes
Buscar
auto avanzar rasgueos aumentar disminuir cambiar color esconder acordes gráficos
losacordes exhibir acordes losacordes youTube video losacordes ocultar tabs losacordes cambiar notación losacordes ir hacia arriba losacordes