A B C D E F G H I J K L M N O P Q R S T U V X Y Z 0-9
Joe Satriani

Início > Joe Satria... > acordes

Joe Satriani

Cool#9

Dificultad:FácilFácil

tuner corregir añadir para songbook version para impresion version de texto version rtf e-mail
acordestablaturabajobateríaarmónicaflautacavacopiano Guitar Pro
acordes

Cool#9

	   
	A guitarra base faz um lance tipo assim: 
|-------------------------------------------------------------------------------| 
|										     | 
                                                                                 
||---------------------------------------------|---------------------||--------- 
||---------------------------------------------|---------------------||--------- 
||*--2-----2--2-----2--2--2--2--2-----2--2--2--|--2-----2--2--2--2--*||--------- 
||*--1-----1--1-----1--1--1--1--1-----1--1--1--|--1-----1--1--1--1--*||--------- 
||---------------------------------------------|---------------------||--------- 
||---------------------------------------------|---------------------||--------- 
                                                                                 
Agora a Guita do senhor Joe 
use pedal de wha em quase tudo, variando a expressividade 
 
                            P.M                                    P.M------|     
---||---------------------------|----------------------------------------------- 
---||---------------------------|----------------------------------------------- 
---||*--------------------------|----------------------------------------------- 
---||*--------------------------|----------------------------------------------- 
---||---6-----8-----8~~~--------|--6-----8-----8/10-----8~~(8)p6---------------- 
8--||------------------------8--|------------------------------------8-----6---- 
                                                                                 
			  w/whammy pedal				w/whammy pedal 
                        A.H-----------|                               A.H         
|----------------------------|----------------------------||-------------------- 
|----------------------------|----------------------------||-------------------- 
|----------------------------|---------------------------*||-------------------- 
|----------------------------|---------------------------*||-------------------- 
|-----------6~~~--8~~~--6/8~~|--(8)\6-----------------8---||-------------------- 
|-----8~~~-------------------|----------------------------||--6/8--------6------ 
                                                                                 
						w/whammy pedal 
                                           A.H--------------------------|         
-------------||-----------------------------------|----------------------------- 
-------------||-----------------------------------|----------------------------- 
------------*||-----------------------------------|----------------------------- 
------------*||-----------------------------------|----------------------------- 
-------------||--------6-----8-----8--10--(8)/10--|--(10)-----10-----(10)------- 
---------8---||--8--------------------------------|----------------------------- 
                                                                                 
			w/whammy pedal 
                       A.H                                                        
-----------||--------------------||---1--------|--1--------------------|-------- 
-----------||--------------------||---1--------|-----1-----------------|-------- 
----------*||--------------------||*--3--------|--------3--------------|-------- 
----------*||--------------------||*--1--------|-----------------------|-------- 
\----------||--------------------||---3--------|-----------------1--1--|-------- 
-------8---||--8--------8--------||------------|-----------------3--3--|-------- 
                                                                                 
 
                                                                                 
---|------------||-----8h10--8h10p8h10p8------8--------------|-------10--6------ 
---|------------||------------------------11-----11p10p8-----|--6h8------------- 
---|-----------*||-------------------------------------------|------------------ 
---|-----------*||-------------------------------------------|------------------ 
---|------------||-------------------------------------------|------------------ 
---|------------||-------------------------------------------|------------------ 
                                                                                 
 
                                                                                 
h8h10p8p6--10--6h8p6------------------------------------------------------------ 
----------------------10--6--8h10p8p6\4--8-----6h8h10p8p6-----6h8h10p8p6-------- 
-------------------------------------------------------------------------------- 
-------------------------------------------------------------------------------- 
-------------------------------------------------------------------------------- 
-------------------------------------------------------------------------------- 
                                                                                 
 
                                             rake-------|                         
-----------------------------------------------------10--14--10----------------- 
6h8h10p8p6-------------8h10h8--------------------11--------------11------------- 
------------10p7h8h10----------10--7h8h10p8--12-------------------------(0)----- 
-------------------------------------------------------------------------------- 
-------------------------------------------------------------------------------- 
-------------------------------------------------------------------------------- 
                                                                                 
 
           bkwrds. rake--|                                                        
6h10p6-------------------------------------------------------------------------- 
-----------9-------------------------------------------------------------------- 
--------------7------------------------------------------5-----5p3p0-----(0)---- 
-----------------8------------------------------------------3------------------- 
--------------------6--------8p6h8p6\5/6--5------------------------------------- 
-------------------------------------------------------------------------------- 
                                                                                 
 
                                                                                 
-------------------------------------------------------------------------------- 
-------------------------------------------------------------------------------- 
3p2-----2--------(2)h3-----2h3p2-----2------------------------------------------ 
----------------------------------5-----------5p3p1h3h5p3p1-----1h3h5p3p1------- 
-------------------------------------------------------------5-------------5---- 
-------------------------------------------------------------------------------- 
                                                                                 
 
                                                                                 
-------------------------------------------------------------------------------- 
-------------------------------------------------------------------------------- 
-------------------------------------------------------------------------------- 
1h3h5p1------------------------------------------------------------7h8h10p8----- 
------------5p1h3h5p3p1-------------------------5h6h8p6--5/6h8h10--------------- 
-------------------------3p1-----------3--5--6---------------------------------- 
                                                                                 
 
                          rake----|                                               
--------------------------------8--8--10------8-----11--8--10--|------8--------- 
-----------------------------8------------11-----8-------------|--11-----8------ 
-----------7--------8-----x------------------------------------|---------------- 
h10------------------------------------------------------------|---------------- 
---------------------------------------------------------------|---------------- 
---------------------------------------------------------------|---------------- 
                                                                                 
 
    p1/2                                rake-------|                              
------------------------------------------------15-----20-----15\--------------- 
11------------------------------------------16---------------------------------- 
----10^'(10)p8--10--10~~~--(10)/--------17-----------------------------17------- 
-------------------------------------------------------------------------------- 
-------------------------------------------------------------------------------- 
--------------------------------------x/---------------------------------------- 
                                                                                 
 
 
----15---20----15--------------15--20--15---------------15--20-15--------------- 
16-------------------------16-----------------------16-------------------------- 
-------------------x/x/17------------------x/x--17--------------------x/x/17---- 
-------------------------------------------------------------------------------- 
-------------------------------------------------------------------------------- 
-------------------------------------------------------------------------------- 
                                                                                 
 
 
----15--20--15--------------15--20--15--------------15--20--15----------|------- 
16----------------------16----------------------16----------------------|------- 
----------------x/x/17------------------x/x/17--------------------------|------- 
-------------------------------------------------------------------x/---|------- 
------------------------------------------------------------------------|------- 
------------------------------------------------------------------------|------- 
                                                                                 
 
 
20---p17--21----------------------20---p16-----------------16\14----------13---- 
--------------17--------------16----------------------------------12------------ 
------------------20---------------------------19--17-----------------14-------- 
----------------------19--19---------------------------19----------------------- 
-------------------------------------------------------------------------------- 
-------------------------------------------------------------------------------- 
                                                                                 
 
                                                                                 
-------------------12--14------------------------------------------------------- 
15------12-----------------12\---11---------9-------8--------------------------- 
----14------14p13--------------------9--11-----8\6-----6h8-----0---------------- 
-------------------------------------------------------------------------------- 
------------------------------------------------------------------------/10----- 
---------------------------------------------------------------------5p0-------- 
                                                                                 
 
        1s---------------------1 1/2                                              
------11^----------||--(11)--(11)^--11~~~--8-----11--8-----11--8-----11--8------- 
-------------------||------------------------8---------8---------8---------8---- 
0--0---------------||----------------------------------------------------------- 
-------------------||----------------------------------------------------------- 
-------------------||----------------------------------------------------------- 
-------------------||----------------------------------------------------------- 
                                                                                 
 
         1         1/2s---------------1                                           
11--8------8------------|--------------------8------8------8--------------11---- 
-------11^----8--11^----|--(11)-----(11)~~~-----11-----11--------11p8h11-------- 
------------------------|------------------------------------------------------- 
------------------------|------------------------------------------------------- 
------------------------|------------------------------------------------------- 
------------------------|------------------------------------------------------- 
                                                                                 
 
             1                        1                                           
p8------------------------|----------------------------------------------------- 
--------8-----------------|----------------------------------------------------- 
----10-----10^-'(10)--p8--|---------10^-(10)---p8------------------------------- 
--------------------------|--10--8-----------------10p8------------------------- 
--------------------------|------------------------------10p8------------------- 
--------------------------|------------------------------------11p10------------ 
                                                                                 
 
     1            1        1       1      1    p1                    1            
----------|--------------------------------------------------------------------- 
----------|--11------11------11------11------11--------------------------------- 
---10^----|------10^-----10^-----10^-----10^---^-'10-(10)p8--------10^--'(10)--- 
----------|--------------------------------------------------10p8--------------- 
----------|--------------------------------------------------------------------- 
----------|--------------------------------------------------------------------- 
                                                                                 
 
             1                    1                                        1      
-------------------------------------------------------------------------------- 
---------------------------------------------------------8---------------------- 
-p8--------10^--'(10)-p8--------10^--'(10)-p8--10--8h10-----10p8------8--10^--'- 
-----10p8-----------------10p8------------------------------------10------------ 
-------------------------------------------------------------------------------- 
-------------------------------------------------------------------------------- 
                                                                                 
 
           1 								    1	 
-------------------------------8--------8--------8------------8-----------8----- 
----------------------------------8h11-----8h11-----11p8---------11p8-------11p8 
-p8------10^--'(10)p8--10--10-----------------------------10----------10^------- 
-----10------------------------------------------------------------------------- 
-------------------------------------------------------------------------------- 
-------------------------------------------------------------------------------- 
                                                                                 
 
   1        1							       +     o 
------8---------------------------------------------------------|--20~~~~~------ 
----------------------------------------------------------------|--------------- 
-10^------10^--'(10)p8------------------------------------------|--------------- 
------------------------10--10--10--7---------------------------|--------------- 
----------------------------------------------------------------|--------------- 
-------------------------------------------/x-----0--0--0-------|--------------- 
                                                                                 
 
                         +    o        +  o     +  o      +  o        +           
---------------------18--|--(18)--17--------15--------13--------11--(11)-------- 
-------------------------|------------------------------------------------------ 
-------------------------|------------------------------------------------------ 
-------------------------|------------------------------------------------------ 
-------------------------|------------------------------------------------------ 
-------------------------|------------------------------------------------------ 
                                                                                 
 
  o            +   o                                                              
\10h|--11--10-------------------|------------/15--15--15p13h15-----13h15p13----- 
----|---------------------/16/18|~~~-----8-------------------------------------- 
----|----------------\10p8------|----------------------------------------------- 
----|---------------------------|----------------------------------------------- 
----|---------------------------|----------------------------------------------- 
----|---------------------------|----------------------------------------------- 
                                                                                 
 
                                                                                 
\10-----11/13-----11h13p11\10--11p|--10\8\6-----(6)/8\6\5--(5)h6p5\3h5h6p5------ 
----------------------------------|--------------------------------------------- 
----------------------------------|--------------------------------------------- 
----------------------------------|--------------------------------------------- 
----------------------------------|--------------------------------------------- 
----------------------------------|--------------------------------------------- 
                                                                                 
 
                                                                                 
p3h5p6p5p3h5--|--(5)p3---------------------------(13)---p10h12p8h10p6-----5----- 
--------------|---------5/10-----11--13--10--11--------------------------------- 
--------------|----------------------------------------------------------------- 
--------------|----------------------------------------------------------------- 
--------------|----------------------------------------------------------------- 
--------------|----------------------------------------------------------------- 
                                                                                 
 
   +                                                                 o          
5--5-----|--6-----8h10-----8--11--10--11/15--10------11/------||/22------------- 
------8--|---------------------------------------13-----------||---------------- 
---------|----------------------------------------------------||-----x\--------- 
---------|----------------------------------------------------||---------------- 
---------|----------------------------------------------------||---------------- 
---------|----------------------------------------------------||---------------- 
                                                                                 
                                *octaver doubles an octave below until indicated 
                                                         1 
---|-----------|-------------------------------------11--13^--13--11--13--11---- 
---|-----------|---------------------(13)------13------------------------------- 
---|-----------|-----------------12--------12----------------------------------- 
---|-----------|---------------------------------------------------------------- 
---|-----------|---------------------------------------------------------------- 
---|-----------|---------------------------------------------------------------- 
                                                                                 
 
         1       1                        p1/2                                    
13--|--13^-----13^~--------------|--18------------------------------------------ 
----|----------------------------|------18^---'16-----18--16-------------------- 
----|----------------------------|----------------------------17--17~~~--------- 
----|----------------------------|---------------------------------------------- 
----|----------------------------|---------------------------------------------- 
----|----------------------------|---------------------------------------------- 
                                                                                 
 
                                 p1                                               
---------------------|-----------------------------------------------|---------- 
---------------------|---------16^'----16------16--18p16-------------|---------- 
-----------------15--|--17---------17------17-------------17-----17--|--15------ 
---------15--17------|-----------------------------------------------|---------- 
---------------------|-----------------------------------------------|---------- 
---------------------|-----------------------------------------------|---------- 
                                                                                 
 
                         1/2            1/2                                       
-------------------------------------------------------------------------------- 
-------------------------------------------------------------------------------- 
17-----17--15--17--17--15^--17-----17--15^--17-----17--15--17-----17--15--17----- 
-------------------------------------------------------------------------------- 
-------------------------------------------------------------------------------- 
-------------------------------------------------------------------------------- 
                                                                                 
 
                                                                                 
---------------------------------------|---------------------------------------- 
-----------------------16------18--16--|--------------16------18--16------------ 
---17--15--17--15--17------17----------|--17--15--17------17----------17--15---- 
---------------------------------------|---------------------------------------- 
---------------------------------------|---------------------------------------- 
---------------------------------------|---------------------------------------- 
                                                                                 
 
                                                                               
----------------------------------------------18-------------------------------- 
----16------18--16--------------16-----18/19---------20--19--18------18h19------ 
17------17----------17--15--17-----------------------------------19------------- 
-------------------------------------------------------------------------------- 
-------------------------------------------------------------------------------- 
-------------------------------------------------------------------------------- 
                                                                                 
 
								       1 
-------------------------------------|---------------------------20^----20------ 
p18---------18-----------------------|--------------20-------------------------- 
-------20----------20--17--20--------|----------17------------------------------ 
-------------------------------------|------17---------------------------------- 
-------------------------------------|--15-------------------------------------- 
-------------------------------------|------------------------------------------ 
                                                                                 
 
		  1/2							     1 1 
---18-------------------18---------------------------------|-------------------- 
-------20--------19^-------20--19--18----------------------|-------------------- 
----------------------------------------20--17---------17--|-20------(20)^'^'--- 
-------------------------------------------------20--------|-------------------- 
-----------------------------------------------------------|-------------------- 
-----------------------------------------------------------|-------------------- 
                                                                                 
 
                                                      p1/2                        
-------------------------------------------------------------------------------- 
---------------------18--16~~~------16-----------18--18^-'(18)--p16--18--16----- 
---17--------15--17-------------17---------------------------------------------- 
-------------------------------------------------------------------------------- 
-------------------------------------------------------------------------------- 
-------------------------------------------------------------------------------- 
                                                                                 
 
			*octave pedal off				        
-------------------------||--------------------------|--------------------20---- 
--------------15---------||--------------------------|-------------------------- 
17--x--16~~~------17~~~--||--------------------------|-------------------------- 
-------------------------||--------------------------|-------------------------- 
-------------------------||--------------------------|-------------------------- 
-------------------------||--------------------------|-------------------------- 
                                                                                 
 
	+     o 
|-----(20)------------------------------|--------------------------------------- 
|---------------------------------------|--------------------------------------- 
|---------------------------------------|--------------------------------------- 
|---------------------------------------|--------------------------------------- 
|---------------------------------------|--------------------------------------- 
|---------------------------------------|--------------------------------------- 
                                                                                 
 
                                                                                 
---||---1--------------|--1--------------------|-------------------------------- 
---||---1--------------|-----1-----------------|-------------------------------- 
---||*--3--------------|--------3--------------|-------------------------------- 
---||*--1--------------|-----------------1--1--|-------------------------------- 
---||---3--------------|-----------------3--3--|-------------------------------- 
8--||------------------|-----------------------|-------------------------------- 
                                                                                 
 
                                                             n.h                 
|-----------------------------||--------------------------|--------------------- 
|-----------------------------||--------------------------|--------------------- 
|----------------------------*||-----------------------x--|---2----------------- 
|----------------------------*||--------------------------|---2----------------- 
|--------------------------x\-||--------------------------|--------------------- 
|-----------------------------||--------------------------|--------------------- 
                                                                                 
 
                        |--scratch stg . w./R.H. thumb nail----|                  
-----------------||-----------------------|---------------------||-------------- 
-----------------||-----------------------|---------------------||-------------- 
----------------*||-----------------------|--------------------*||-------------- 
----------------*||-----------------------|--------------------*||-------------- 
--------------x\-||---------/x\x---/x-----|---------/x\x---/x---||-------------- 
------------x\---||-----------------------|---------------------||-------------- 
                                                                                 
 
                                          *keep whammy pedal depressed till end   
---------------|-----------------------||--10p8h10p8h10p8h10p8--10p8h10p8h10---- 
---------------|-----------------------||--------------------------------------- 
---------------|-----------------------||--------------------------------------- 
---------------|-----------------------||--------------------------------------- 
---------------|-----------------------||--------------------------------------- 
---------------|-----------------------||--------------------------------------- 
                                                                                 
 
of song (notes sound octave higher than written)                                  
p8h10--------10h11p10h11p10h11\8--|--(8)--10--------------11p10p8-----10-------- 
----------------------------------|--------------------------------------------- 
----------------------------------|--------------------------------------------- 
----------------------------------|--------------------------------------------- 
----------------------------------|--------------------------------------------- 
----------------------------------|--------------------------------------------- 
                                                                                 
 
                                                                                 
8------8------------------------------------------------------------------------ 
---11-----11p10--8--10--8--10--8--------10--8--------10p8h10p8--------10p8------ 
----------------------------------10p8---------10p8-------------10p8------------ 
-------------------------------------------------------------------------------- 
-------------------------------------------------------------------------------- 
-------------------------------------------------------------------------------- 
                                                                                 
 
                                                                                 
|------------------------------------------------------------------------------- 
|-----------8--10p8h10--8--10p8--------10p8h10p8--------10p8------8------------- 
|--10p8h10-----------------------10p8-------------10p8--------10---------8------ 
|--------------------------------------------------------------------10--------- 
|------------------------------------------------------------------------------- 
|------------------------------------------------------------------------------- 
                                                                                 
 
                                                                            1     
------------------|----------------------------------------|-------------------- 
------------------|----------------------------------------|-------------------- 
h10p8-------------|----------------------------------------|-------------------- 
-------10p8\7-----|--------8--------/10\5\3/5/7-----8p7\3--|/5\3\1~~~----------- 
------------------|----------------------------------------|----------------5^-- 
------------------|----------------------------------------|-------------------- 
                                                                                 
 
     1/2   1/2 
----------------------------------------|-----------------------8--10----8--10-- 
----------------------------------------|------11-----8--10--11-------11-------- 
----------------------------------------|--7/8----10---------------------------- 
------------------------------5/7---8h10|--------------------------------------- 
--(5)^--'--^--'----(5)\3/5/6------------|--------------------------------------- 
----------------------------------------|--------------------------------------- 
 
 
                                                                                 
--11--------------|--13--13--13--13--13--13--13--13--13--13--|--13--13---------- 
------------------|------------------------------------------|------------------ 
------------------|------------------------------------------|------------------ 
------------------|------------------------------------------|------------------ 
------------5-----|------------------------------------------|------------------ 
------------------|------------------------------------------|------------------ 
                                                                                 
 
           1 1/2                                                                  
13~~~-----15^-----'--13---------|---------------------------------------|------- 
------------------------16--13--|------13------16------13~~~--13h16-----|------- 
--------------------------------|--15------15------15-------------------|------- 
--------------------------------|---------------------------------------|------- 
--------------------------------|---------------------------------------|------- 
--------------------------------|---------------------------------------|------- 
                                                                                 
 
  1		       1                1                      1 
18^-------18--------18^-|-----18-----20^~~~~~-----------18--18^-|--(18)-----'--- 
------------------------|---------------------------------------|--------------- 
------------------------|---------------------------------------|--------------- 
------------------------|---------------------------------------|--------------- 
------------------------|---------------------------------------|--------------- 
------------------------|---------------------------------------|--------------- 
                                                                                 
 
      1             1                                  1                          
16-----------------------|------------------------------------------------------ 
----18^----16-----18^----|-----(18)--'(18)--p16------18^---'(18)---p16---------- 
-------------------------|-----------------------17---------------------17------ 
-------------------------|------------------------------------------------------ 
-------------------------|------------------------------------------------------ 
-------------------------|------------------------------------------------------ 
                                                                                 
 
  1                      1                      1                                 
--------------------------------------------------|----------------------------- 
18^---'(18)---p16------18^---'(18)---p16------18^-|-(18)--'(18)---p16----------- 
-------------------17---------------------17------|--------------------17------- 
--------------------------------------------------|----------------------------- 
--------------------------------------------------|----------------------------- 
--------------------------------------------------|----------------------------- 
                                                                                 
 
  1                       1                      1                       1 1/2    
------------------------------------------------------------------------15^----- 
18^----'(18)---p16------18^---'(18)---p16------18^---'(18)---p16---------------- 
-------------------17---------------------17---------------------17\15---------- 
-------------------------------------------------------------------------------- 
-------------------------------------------------------------------------------- 
-------------------------------------------------------------------------------- 
                                                                                 
 
                                                                                 
|--------(15)---'---------------------15--18-----18-----18-----|-----17--18----- 
|-----------------16--13------13--16---------------------------|---------------- 
|-------------------------15-----------------------------------|---------------- 
|--------------------------------------------------------------|---------------- 
|--------------------------------------------------------------|---------------- 
|--------------------------------------------------------------|---------------- 
                                                                                 
 
                                                                                 
17-----15------------------------15-----17p15-------------15------|------------- 
-----------18------------16--------------------18--16h18------18--|--16--18----- 
---------------------17------17-----------------------------------|------------- 
------------------------------------------------------------------|------------- 
------------------------------------------------------------------|------------- 
------------------------------------------------------------------|------------- 
                                                                                 
 
 
------------------------------|-------------------------------------18---------- 
16----------15----------------|---20p18p16\15h16h18p16p15-----15h16------------- 
----17--15------17-----15-----|------------------------------------------------- 
------------------------------|------------------------------------------------- 
------------------------------|------------------------------------------------- 
------------------------------|------------------------------------------------- 
                                                                                 
 
                                                                                 
---------------------------------------------------------|---------------------- 
---------------------------------------------------------|---------------------- 
------15\12h14h15--(0)--10p8p7h8h10p8p7------7h8h10p8p7--|------7h8h10p8p7------ 
-----------------------------------------10--------------|--10------------------ 
---------------------------------------------------------|---------------------- 
---------------------------------------------------------|---------------------- 
                                                                                 
 
                                                                                 
----------------------------------------------|--------------------------------- 
----------------------------------------------|--------------------------------- 
----7h8h10p8p7--8~~~--(8)p7-----------5tr(7)--|--------(5)tr(7)--------7/------- 
10--------------------------------------------|--------------------------------- 
----------------------------------------------|--------------------------------- 
----------------------------------------------|--------------------------------- 
                                                                                 
 
                                                                                 
--||---------------------------------------------------------------------------- 
--||---------------------------------------------------------------------------- 
--||---------------------------------------------------------------------------- 
--||---------------------------------------------------------------------------- 
x\||---------------------------------------------------------------------------- 
--||---------------------------------------------------------------------------- 
                                                                       
_______________________________________________________ 
Contribuição: Everton Laranjeira(tigerfly13120@hotmail.com) 

	  

Solicitar el vídeo de "Cool#9" - Descargar Cool#9 mp3

No existe una video leccione para esta canción

solicitar
140

Envie sus comentários.

0 comentários

 
LosAcordes
Buscar
auto avanzar rasgueos aumentar disminuir cambiar color esconder acordes gráficos
losacordes exhibir acordes losacordes youTube video losacordes ocultar tabs losacordes cambiar notación losacordes ir hacia arriba losacordes