Joaquín Rodrigo

Início > Joaquín Ro... > acordes

Concierto De Aranjuez Tablatura

Joaquín Rodrigo

Dificultad:Ningún gradoNingún grado

por Teusalves

tuner correct add songbook print version text version salvar en e-mail
acordesukuleletablaturabajobateríaarmónicaflautacavacopiano Guitar Pro
acordes

Concierto De Aranjuez

	  -0---0-0-1-3-5-3-1-0---0---------------------------------------- 
---3-----------------3------------------------------------------ 
---------------------------------------------------------------- 
---------------------------------------------------------------- 
---------------------------------------------------------------- 
---------------------------------------------------------------- 


---------0-------------0---------------------------------------- 
-------1----3--------1------------------------------------------ 
-----4-------------4-------------------------------------------- 
---2-------------2---------------------------------------------- 
-0-------------0------------------------------------------------ 
---------------------------------------------------------------- 


-0-1--3---5-3-1---------0---0----------------------------------- 
----------------------1---3------------------------------------- 
--------0-----------4------------------------------------------- 
------------------2--------------------------------------------- 
----------------0----------------------------------------------- 
-----3---------------------------------------------------------- 


-0-1-3-5-7-------3-1-1p0-0-------------------------------------- 
---------------3-----------3-3-1------3------------------------- 
-------------2----------------------2--------------------------- 
-----------0----------------------0----------------------------- 
---------------------------------------------------------------- 
---------------------------------------------------------------- 


-0-1-0---------------------------------------------------------- 
-------3-1-0h1p0---0---------0---------------------------------- 
-----------------2---------1------------------------------------ 
-------------------------3-------------------------------------- 
-----------------------2---------------------------------------- 
---------------------0------------------------------------------ 


---------------------------------------------------------------- 
-0-1-3~-1-0---0------------------------------------------------- 
------------------2----2-0------2------------------------------- 
----------------2----2--------2--------------------------------- 
------------0---------------0----------------------------------- 
---------------------------------------------------------------- 



---------------0-1-3-5-3-------5-------------------------------- 
---------0-1-3---------------5---------------------------------- 
-----0-2-------------------5------------------------------------ 
-2-3---------------------3-------------------------------------- 
---------------------------------------------------------------- 
---------------------------------------------------------------- 


-5-5-7-8-7-3-1--3----------------------------------------------- 
------------------------0--------------------------------------- 
----------------------0---0------------------------------------- 
--------------------2------------------------------------------- 
------------------2--------------------------------------------- 
---------------0------------------------------------------------ 


-7-7--5-5--------------------------5--------5------------------- 
-----------8-8--6-6--5-5--6-6--8-8--------6--------------------- 
----------------------------------------5----------------------- 
--------------------------------------3------------------------- 
---------------------------------------------------------------- 
---------------------------------------------------------------- 


-3-1p0-1p0-----0--------------0--------------------------------- 
-----------3-1---3-1-0------1----------------------------------- 
--------------------------2------------------------------------- 
------------------------3--------------------------------------- 
---------------------------------------------------------------- 
---------------------------------------------------------------- 



-0-1-0-------0h1p0---0------------------------------------------ 
-------3-1-3-------3---------1---------------------------------- 
---------------------------0------------------------------------ 
-------------------------2-------------------------------------- 
-----------------------3---------------------------------------- 
---------------------------------------------------------------- 



---------------------------------------------------------------- 
----0-1-3-------1--0-0------------------------------------------ 
-2~---------2---1-------2------2-------------------------------- 
------------3---2------------2---------------------------------- 
----------2----------------0------------------------------------ 
--------------0------------------------------------------------- 



---------------------------------------------------------------- 
--------------1----1-------------------------------------------- 
----------4-----4----------------------------------------------- 
-2p0-2----2-2--------------------------------------------------- 
--------0------------------------------------------------------- 
---------------------------------------------------------------- 



---------------------------------------------------------------- 
------------------------------1--------------------------------- 
-----0-----2-0--------------4----------------------------------- 
-2h3----0------3-2p0-2----2------------------------------------- 
------------------------0--------------------------------------- 
-------3-------------------------------------------------------- 



---------------------------------------------------------------- 
---------------------------------------------------------------- 
-----0-2-4----0------------------------------------------------- 
-2h3-------------3-3p2-2p0--0------0---------------------------- 
------------4-----------------3--4------------------------------ 
---------------------------------------------------------------- 


----------------------------0----------------------------------- 
--------------------------0------------------------------------- 
------------------------1--------------------------------------- 
-2h3-2-0--------------3----------------------------------------- 
---------3-2p0-2----2------------------------------------------- 
------------------0--------------------------------------------- 



---------------------------------------------------------------- 
-0-1-3-----------------1-0-0------------------------------------ 
---------2--------1-----------2------2-------------------------- 
---------3-3----2---2--------------2---------------------------- 
-------2-------------------------0------------------------------ 
--------------0------------------------------------------------- 
	  

No existe una video leccione para esta canción

request
LosAcordes
Buscar
auto avanzar rasgueos aumentar disminuir cambiar color esconder acordes gráficos
losacordes exhibir acordes losacordes youTube video losacordes ocultar tabs losacordes ir hacia arriba losacordes