Henry Mancini

Início > Henry Manc... > acordes

Pink Panther Theme Tablatura

Henry Mancini

Dificultad:PrincipiantePrincipiante

por celondir

tuner correct add songbook print version text version salvar en e-mail
acordesukuleletablaturabajobateríaarmónicaflautacavacopiano Guitar Pro
acordes

Pink Panther Theme

	  Intro: play twice 
 
G------------------------------ 
D---2-3---4-5----0---------- 
A------------------------------ 
E-------------------------3---- 
 
Song starts: keep playing until end 
 
G------------------------0----------------------------------3------- 
D----2-3---4-5----0--------0----4-3---2-1---------1------------ 
A-------------------------------------------------1----------------- 
E-------------------------------------------------------------------- 
 

	  

pink-panther-theme-by-henry-mancini Play

Existe una video leccione para esta canción

view more
LosAcordes
Buscar
auto avanzar rasgueos aumentar disminuir cambiar color esconder acordes gráficos
losacordes exhibir acordes losacordes youTube video losacordes ocultar tabs losacordes ir hacia arriba losacordes