A B C D E F G H I J K L M N O P Q R S T U V X Y Z 0-9
Helloween

Início > Helloween > acordes

Helloween

Keeper Of The Seven Keys

Dificultad:FácilFácil

tuner corregir añadir para songbook version para impresion version de texto version rtf e-mail
acordestablaturabaixobateríaarmónicaflautacavacopiano Guitar Pro
acordes

Keeper Of The Seven Keys

	   
Intro....(2X) (let ring) 
e----|---------0---------------0---------------0-----------------------| 
B----|-------1---1-----------1---1-----------1---1---------------------| 
G----|-----2-------2-------2-------2-------2-------2-------------------| 
D----|---2-----------2---2-----------2---2-----------2-----------------| 
A-3-2|-0---------------------------------------------------------0-2-3-| 
E----|-----------------3---------------2---------------0-1-2-3-4-------| 
 
Make the people.....  (4X) 
e---------0---------------0---------------0-----------------------| 
B-------1---1-----------1---1-----------1---1---------------------| 
G-----2-------2-------2-------2-------2-------2-------------------| 
D---2-----------2---2-----------2---2-----------2-----------------| 
A-0---------------------------------------------------------0-2-3-| 
E-----------------3---------------2---------------0-1-2-3-4-------| 
 
on 4th time add this ending 
e---------------------------------| 
B-1-------------------------------| 
G-2-------------------------------| 
D-2-------------------------------| 
A-0-------------------------------| 
E---------------------------------| 
 
(distortion on...) 
       Put on your armour.... (2X) 
e-------|-------|-----------------|-------|-------|--------|----------------| 
B-------|-------|-----------------|-------|-------|--------|----------------| 
G-------|-------|-----------------|-------|-------|--------|----------------| 
D-2-2---|-2-3---|-5-7-5-------5---|-3-2---|-3-3---|--5-5---|-3---5---7------| 
A-2-0---|-2-3---|-5-7-5-------5---|-3-2---|-3-3---|--5-3---|-3---5---7------| 
E-0-----|-0-1---|-3-5-3---3-3-3---|-1-0---|-1-1---|--3-----|-1---3---5------| 
 
 
You hear them whispering..... (Riff#1) 
 gtr1 (not very sure about this one) 
e-----------------|----------------|--------------------|------------------| 
B-----------------|----------------|--------------------|------------------| 
G-----------------|----------------|--------------------|------------------| 
D-2---------------|----------------|--------------------|------------------| 
A-0---------------|3---------------|5-------------------|2-----------------| 
E-----------------|1---------------|3-------------------|0-----------------| 
|gtr2             |                |                    |                  | 
e-----------------|----------------|--------------------|------------------| 
B-----------------|----------------|--------------------|------------------| 
G-----------------|----------------|--------------------|---------99999----| 
D-2---------------|7555755575557555|10777107771077710777|--------------1097| 
A-0000000000000000|----------------|--------------------|88888888----------| 
E-----------------|----------------|--------------------|------------------| 
 
This ending is tough. I didn't catch anything so...... 
 gtr1 
e-----------------|--------------------|----------------------------| 
B-----------------|--------------------|----------------------------| 
G-----------------|--------------------|----------------------------| 
D-----------------|5-------------------|---------2------------------| 
A-3---------------|3-------------------|-5---3---0------------------| 
E-1---------------|--------------------|-3---1----------------------| 
|gtr2             |                    |                            | 
e-----------------|--------------------|----------------------------| 
B-----------------|--------------------|----------------------------| 
G-----------------|--------------------|--????????????--------------| 
D-7555755575557555|10777107771077710777|----------------------------| 
A-----------------|--------------------|----------------------------| 
E-----------------|--------------------|----------------------------| 
 
 
 
Watch out for the seas.... (Riff#2) 
e------------------------------------------------------------------------------------------------| 
B------------------------------------------------------------------------------------------------| 
G------------------------------------------------------------------------------------------------| 
D---3-----------------------------------5---5--------------------------5-------------------------| 
A---3-----------2-----------5---------3-3---3---5-3--------3---------3-3---3-3-3---2---------5---| 
E-1-1---1-1-1-0-0---0-0-0-3-3---3-3-3---------------5-3--1-1---1-1-1-------------0-0---0-0-0-3---| 
 
 
I have no idea about the next part???? 
Our only hope's your victory...... 
e------------------------------------------------------------------| 
B------------------------------------------------------------------| 
G----------------------???-----------------------------------------| 
D-------------------???---???--------------------------------------| 
A-3-------5----?????---------????----------------------------------| 
E-1-------3-----------------------?????----------------------------| 
 
 
Pre-Chorus 
e----------------------------------------------------| 
B----------------------------------------------------| 
G--------------------------------------2-------------| 
D----------2--3-----2--3--5---2--3--5----------------| 
A----3--5--------5----------------------------3--5---| 
E---------------------------------------------1--3---| 
 
 
Chorus.                                 repeat this ending 
e--------------------------------------|-------------------------------| 
B--------------------------------------|-------------------------------| 
G-5------2------------------5------5---|-------------------------------| 
D-5------2----------3---5---5------5---|-5/9---5-5---2-------5---2-----| 
A-3------0----------3---5---3------3---|-3/7---3-3-x-0---3---3---0---5-| 
E---------------3---1---3--------------|-----------------1-----------3-| 
 
3rd time end like this 
e--------------------| 
B--------------------| 
G--------------------| 
D-------5---------5--| 
A---3---3---------3--| 
E---1-------3-3-3----| 
 
Go back to riff#1 and play until here again 
 
 
 
          Throw the first key into the sea of hate.... 
e------------------------------------------------------------------| 
B------------------------------------------------------------------| 
G-----2------------------------------------------------------------| 
D-5-4-2------------------------------------------------------------| 
A-3-2-0------------------------------------------------------------| 
E------------------------------------------------------------------| 
 
 
 
SOLO # 1 
 gtr1 
e--------------------------------|---------------------------------------| 
B--------------------------------|---------------------------------------| 
G--------------------------------|---------------------------------------| 
D-2------------------------------|---------------------------------------| 
A-0------------------------------|-5-------------------------------------| 
E--------------------------------|-3-------------------------------------| 
|gtr2                            |                                    A.H| 
e--------------------------------|---------------------------------------| 
B--------------------------------|-17-15-14-17-15-14-15-14-12-15-14-12---| 
G--/14---------------------------|-------------------------------------14| 
D-/------------------------------|---------------------------------------| 
A--------------------------------|---------------------------------------| 
E--------------------------------|---------------------------------------| 
 
 gtr1 
e--------------------------------|----------------------------------| 
B--------------------------------|----------------------------------| 
G--------------------------------|----------------------------------| 
D-2------------------------------|----------------------------------| 
A-0------------------------------|-5--------------------------------| 
E--------------------------------|-3--------------------------------| 
|gtr2                            |                                  | 
e--------------------------------|----------------------------------| 
B--------------------------------|----------------------------------| 
G--------------------------------|----------------------------------| 
D--------------------------------|----------------------------------| 
A--------------------------------|----------------------------------| 
E--------------------------------|----------------------------------| 
 
 
 gtr1 
e--------------------------------|----------------------------------| 
B--------------------------------|----------------------------------| 
G--------------------------------|----------------------------------| 
D-2------------------------------|----------------------------------| 
A-0------------------------------|-3--------------------------------| 
E--------------------------------|-1--------------------------------| 
|gtr2                            |                                  | 
e--------------------------------|----------------------------------| 
B-A.H.---------------------------|----------------------------------| 
G--------------------------------|-3--/--5-------3-\-1-/-3----------| 
D-2-------4-------5-------2------|----------------------------------| 
A--------------------------------|----------------------------------| 
E--------------------------------|----------------------------------| 
 
                                  gtr fill #1 
e--------------------------------|-----------------------------------------------| 
B--------------------------------|-----------------------------------------------| 
G--------------------------------|-----------------------------------------------| 
D--------------------------------|-7/9-9-9-9\7-7-7-7/9-9-9-9\4-4-4-4-4/5-5-5-2-4-| 
A-5------------------------------|-5/7-7-7-7\5-5-5-5/7-7-7-7\2-2-2-2-2/3-3-3-0-2-| 
E-3------------------------------|-----------------------------------------------| 
|                                |                                               | 
e----------22-------20-------19--|-----------------------------------------------| 
B-20-----------------------------|-----------------------------------------------| 
G--------------------------------|-----------------------------------------------| 
D--------------------------------|-----------------------------------------------| 
A--------------------------------|-----------------------------------------------| 
E--------------------------------|-----------------------------------------------| 
 
 
 
gtr1..(BASS FILL/SOLO#1)                        return to gtr fill#1 
e-------------------------------------------------------------------| 
B-------------------------------------------------------------------| 
G---------------------------------7---------------------------------| 
D-------2-------------------------7---------------------------------| 
A-------2-------------------------5---------------------------------| 
E-5-3-2-0-------------------0-0-0-----------------------------------| 
 
 
 
 
SOLO #2 
gtr1 
           dive (bar) 
e-------------------------------------------19-20-20-20b(22)-20-----------| 
B---------------------------22b(24)-22b(24)--------------------22-22b(24)-| 
G-------------------------------------------------------------------------| 
D-5b(7)-------------------------------------------------------------------| 
A-------------------------------------------------------------------------| 
E---------------0-\-------------------------------------------------------| 
 
 Drill+use tremolo             bend and 
 bar very rapidly!             release 
e------------------------------------------------------------------| 
B------------------------------19b(22)r19--------------------------| 
G-17-(19)----------------------------------------------------------| 
D------------------------------------------------------------------| 
A------------------------------------------------------------------| 
E------------------------------------------------------------------| 
 
???? 
e------------------------------------------------------------------| 
B------------------------------------------------------------------| 
G------------------------------------------------------------------| 
D------------------------------------------------------------------| 
A------------------------------------------------------------------| 
E------------------------------------------------------------------| 
 
???? 
e------------------------------------------------------------------| 
B------------------------------------------------------------------| 
G------------------------------------------------------------------| 
D------------------------------------------------------------------| 
A------------------------------------------------------------------| 
E------------------------------------------------------------------| 
 
 
 
 
 
 
Throw the second key into the sea of fear (only bass & drums ?) 
e------------------------------------------------------------------| 
B------------------------------------------------------------------| 
G------------------------------------------------------------------| 
D------------------------------------------------------------------| 
A------------------------------------------------------------------| 
E------------------------------------------------------------------| 
 
e-----------------------------|-----------------------------| 
B-----------------------------|-----------------------------| 
G-----------------------------|-----------------------------| 
D-3/5555\3/5-5------7---------|-3/5555\3/5-5------7---------| 
A-5/7777\5/7-7-9-10---10-9-7--|-5/7777\5/7-7-9-10---10-9-7--| 
E-----------------------------|-----------------------------| 
 
Throw the third key into the sea of senselessness 
e----------------------------------------| 
B----------------------------------------| 
G----------------------------------------| 
D-5----7-----------------------5----7----| 
A-3----5----2h3p2p0h2p0---2----3----5----| 
E-------------------------0--------------| 
 
 
e-----------------------------|-----------------------------| 
B-----------------------------|-----------------------------| 
G-----------------------------|-----------------------------| 
D-3/5555\3/5-5------7---------|-3/5555\3/5-5------7---------| 
A-5/7777\5/7-7-9-10---10-9-7--|-5/7777\5/7-7-9-10---10-9-7--| 
E-----------------------------|-----------------------------| 
 
 
The fourth key belongs into the sea of greed 
e----------------------------------------| 
B----------------------------------------| 
G----------------------------------------| 
D-5----7-----------------------5----7----| 
A-3----5----2h3p2p0h2p0---2----3----5----| 
E-------------------------0--------------| 
 
 
 ignorance........ 
   pm  ........    ............   ............ 
e-------------------------------------------------------------| 
B-------------------------------------------------------------| 
G-------------------------------------------------------------| 
D-------------------------------------------------------------| 
A-2h4---------2h4-------------2h4-------------5h7-------------| 
E-0h2-2-2-2-2-0h2-2-2-2-2-2-2-0h2-2-2-2-2-2-2----5p0h4p0h2p0--| 
 
  pm...........                 ............ 
e------------------------------------------------------------| 
B------------------------------------------------------------| 
G------------------------------------------------------------| 
D------------------------------------------------------------| 
A-2-------------5h7------------2-------------5h7-------------| 
E-0-0-0-0-0-0-0----5p0h4p0h2p0-0-0-0-0-0-0-0----5p0h4p0h2p0--| 
 
 pm  ........    ............   ............ 
e-------------------------------------------------------------| 
B-------------------------------------------------------------| 
G-------------------------------------------------------------| 
D-------------------------------------------------------------| 
A-2h4---------2h4-------------2h4-------------5h7-------------| 
E-0h2-2-2-2-2-0h2-2-2-2-2-2-2-0h2-2-2-2-2-2-2----5p0h4p0h2p0--| 
 
 
 
 
 pm.................................................................... 
e-----------------|-----------------|-----------------|----------------| 
B-----------------|-----------------|-----------------|----------------| 
G-----------------|-----------------|-----------------|----------------| 
D-----------------|-----------------|-----------------|----------------| 
A-----------------|-----------------|-----------------|----------------| 
E-0-0-0-0-0-0-0-0-|-0-0-0-0-0-0-0-0-|-0-0-0-0-0-0-0-0-|-0-0-0-0-0-0-0-0| 
 
 
 Disease disease,.... 
 pm..................................................................... 
e-----------------|-----------------|-----------------|-----------------| 
B-----------------|-----------------|-----------------|-----------------| 
G-----------------|-----------------|-----------------|-----------------| 
D-----------------|-----------------|-----------------|-----------------| 
A-----------------|---------5-5-5-5-|-3-3-3-3-5-5-5-5-|-----------------| 
E-0-0-0-0-3-3-3-3-|-5-5-5-5---------|-----------------|-3-3-2-2-0-0-0-0-| 
 
 Disease disease,.... 
 pm............................................................. 
e-----------------|-----------------|-----------------|---------| 
B-----------------|-----------------|-----------------|---------| 
G-----------------|-----------------|-----------------|---------| 
D-----------------|-----------------|-----------------|-5-------| 
A-----------------|---------5-5-5-5-|---------5-5-5-5-|-7-------| 
E-0-0-0-0-3-3-3-3-|-5-5-5-5---------|-7-7-7-7---------|---------| 
 
 Disease disease,.... 
e-----------------|-----------------|-----------------|----------------| 
B-----------------|-----------------|-----------------|----------------| 
G-----------------|-----------------|-----------------|----------------| 
D-----------------|---------7-------|-5-------7-------|----------------| 
A-2-------5-------|-7-------5-------|-3-------5-------|-5----4----2----| 
E-0-------3-------|-5---------------|-----------------|-3----2----0----| 
 
 Disease disease,.... 
e-----------------|-----------------|-----------------| 
B-----------------|-----------------|-----------------| 
G-----------------|-----------------|-----------------| 
D-----------------|---------7-------|---------7-------| 
A-2-------5-------|-7-------5-------|-5-------5-------| 
E-0-------3-------|-5---------------|-7---------------| 
 
 
 
 
Slower Tempo. 
clear tone 
e-7----12/14---12------------------------------|------------------------| 
B-8--------------------------------------------|------0-3h0-------------| 
G-9-------------------14h16-16--16-------------|-2b(4)-----2p0h2p0------| 
D-9----------------17------------------17--14--|------------------2p0---| 
A-7--------------------------------------------|---------------------2p0| 
E-0--------------------------------------------|------------------------| 
 
 
 
e-7----10h12-12-12----10h12-12----------------------------17b(19)-(19)r(17)---15----| 
B-8-------------------------------17b(19)-r(17)-15-15-------------------------------| 
G-9---------------------------------------------------------------------------------| 
D-9---------------------------------------------------------------------------------| 
A-7---------------------------------------------------------------------------------| 
E-0---------------------------------------------------------------------------------| 
 
 
e-10/12---10----------------------------------| 
B------------13-12-10-------------------------| 
G---------------------12----12h14b16r14p12h14-| 
D------------------------14-------------------| 
A---------------------------------------------| 
E---------------------------------------------| 
 
(very slight distortion) 
e-----------------------------------|-----------------------------------| 
B-----8-7-h8p7----------------------|-----8-5h7p5-----------------------| 
G---9----------9---7-9b(11)-(9)p7-9-|---7---------7-5-7b(9)r(7)b(9)p5---| 
D-9--------------9------------------|-7-------------------------------7-| 
A-----------------------------------|-----------------------------------| 
E-----------------------------------|-----------------------------------| 
 
clear tone 
e-8h12p8------------10h14p10-------------| 
B-------10------------------12-----------| 
G---------9------------------11----------| 
D----------10------------------12--------| 
A------------12------------------14------| 
E--------------12-10---------------14-12-| 
 
 
e----------------------------17-------------------------------------15-17b(19)-r(17)b(19)r(17)-| 
B-15---15h17------13/15---/17-----17---15---13-----------------15/17---------------------------| 
G------------------------------------------------16---14---------------------------------------| 
D----------------------------------------------------------------------------------------------| 
A----------------------------------------------------------------------------------------------| 
E----------------------------------------------------------------------------------------------| 
 
max dist. 
pm................................... 
e---------|--------|--------|--------| 
B---------|--------|--------|--------| 
G---------|--------|--------|--------| 
D---------|--------|--------|--------| 
A---------|--------|--------|--------| 
E-0-0-0-0-|0-0-0-0-|0-0-0-0-|0-0-0-0-| 
 
 
...On a mound..... 
e---------------------------------------------------------------| 
B---------------------------------------------------------------| 
G---------------------------------------------------------------| 
D---------------------------------------------------------------| 
A-4---------------6---------------4---------------6-------------| 
E-2---------------4---------------2---------------4-------------| 
 
 
Man who do you..... 
                            pm....  ............... 
e-----------------------------------------------------------------| 
B-----------------------------------------------------------------| 
G-----------------------------------------------779---------------| 
D-2---2---9----2---2---9---5------7-------557799------------------| 
A-2---2---7----2---2---7---3-333335-557799------------------------| 
E-0---0--------0---0----------------------------------------------| 
 
Don't throw the key.... 
e------------------------------------------------------------------| 
B------------------------------------------------------------------| 
G------------------------------------------------------------------| 
D---------------------------/2---/4--------------------------------| 
A------------------------------------------------------------------| 
E-------------------------------------/3---------------------------| 
 
Don't let him suck... 
e------------------------------------------------------------------| 
B------------------------------------------------------------------| 
G------------------------------------------------------------------| 
D---------------------------/2---------/4---------/2---------------| 
A------------------------------------------------------------------| 
E------------------------------------------------------------------| 
 
 
 
SOLO #3 
e-------------------------------------|-------------------------------------| 
B-5500557788008---77007---55005---0---|--5500557788008---0---101010108-7-5--| 
G-------------------------------------|-------------------------------------| 
D-------------------------------------|-------------------------------------| 
A-------------------------------------|-------------------------------------| 
E-------------------------------------|-------------------------------------| 
 
e-88888-5-77777---5555-------57-|-88888-5-77777---5555-----|10p8p7---h8p7------------|---------| 
B---------------8-----8-7-578---|---------------8------8---|-------h10----h10p8------|---------| 
G-------------------------------|--------------------------|-------------------9-----|-9---7---| 
D-------------------------------|--------------------------|-------------------------|---------| 
A-------------------------------|--------------------------|-------------------------|---------| 
E-------------------------------|--------------------------|-------------------------|---------| 
 
                                                                                       play this 2X 
e--------------------------------------------------|--------------------------------------------| 
B-8---10p8p7h8---10p8p7h8-h10p8p7h8p7--------------|---------------------------------------7810-| 
G------------------------------------9797----------|---------------------------------79--79-----| 
D----------------------------------------1091097---|------------------------------910--10-------| 
A-----------------------------------------------109|10---12p10p9h10---12p10p9h1012--------------| 
E--------------------------------------------------|--------------------------------------------| 
 
e-------------------------------------------------------------|--------------------------------------------| 
B-8---10p8p7h8---10p8p7h8-10p8p7h8-10p8p7h8-10p8p7h8-10p8p7h8-|--????????????------------------------------| 
G-------------------------------------------------------------|--------------------------------------------| 
D-------------------------------------------------------------|--------------------------------------------| 
A-------------------------------------------------------------|--------------------------------------------| 
E-------------------------------------------------------------|--------------------------------------------| 
 
e-----------------------------------------|-----------------------------------------| 
B--????????????????-----------------------|----????????????????---------------------| 
G-----------------------------------------|-----------------------------------------| 
D-----------------------------------------|-----------------------------------------| 
A-----------------------------------------|-----------------------------------------| 
E-----------------------------------------|-----------------------------------------| 
 
faster 
e-------------------------------------------|------------------------------------| 
B-5-0-0-7-0-0-8-0-0-5-0-0-7-0-0-8-0-0-10-0-0|7-0-0-8-0-0-10-0-0-12-0-0-10-0-0-12-| 
G-------------------------------------------|------------------------------------| 
D-------------------------------------------|------------------------------------| 
A-------------------------------------------|------------------------------------| 
E-------------------------------------------|------------------------------------| 
 
 
???? 
 
 
e-8---10p8p7h8---10p8p7h8-h10p8p7h8p7--7-------------|--------------------------------------------7--| 
B------------------------------------10-108787-7-----|-------------------------------------7-87108-10| 
G---------------------------------------------9-79---|--------------------------------7--97-9--------| 
D-------------------------------------------------109|10---12p10p9h10---12p10p9h10-109-10------------| 
A----------------------------------------------------|-----------------------------------------------| 
E----------------------------------------------------|-----------------------------------------------| 
 
                 |---                                         play 2X--| 
e-8---10p8p7h8---10p8p7h8-10p8p7h8-10p8p7h8-10p8p7h8-10p8p7h8-10p8p7h8-| 
B----------------------------------------------------------------------| 
G----------------------------------------------------------------------| 
D----------------------------------------------------------------------| 
A----------------------------------------------------------------------| 
E----------------------------------------------------------------------| 
 
 
 
 
play this 2X 
e-----10b(12)--r10---8--7--8--10--10b(12)---7------------------------------------------| 
B----------------------------------------------8--12b(13)--12--------------------------| 
G-9------------------------------------------------------------12----------------------| 
D------------------------------------------------------------------9--9b(10)--9--7--5--| 
A--------------------------------------------------------------------------------------| 
E--------------------------------------------------------------------------------------| 
 
 
 
 an earthquake 
e------------------------------------------------------------------| 
B------------------------------------------------------------------| 
G------------------------------------------------------------------| 
D-9-10---------5-7----9----10---9---------5---7----???????????-----| 
A------------------------------------------------------------------| 
E------------------------------------------------------------------| 
 
 
 
CHORUS 
 
 
Yes the tyrant is dead.... 
e-------------------------------------------------------------------------| 
B-------------------------------------------------------------------------| 
G------------------------------------------------------------------2222---| 
D-5---------2----2----2--------------------------------------------2222---| 
A-3----5----0----2----0----5-----------333333333.....2222222222....0000...| 
E------3---------0---------3-----------111111111.....0000000000....-------| 
 
 
Outro (gtr2 plays somethig very easy in the backround) 
e----|---------0---------------0---------------0-----------------------| 
B----|-------1---1-----------1---1-----------1---1---------------------| 
G----|-----2-------2-------2-------2-------2-------2-------------------| 
D----|---2-----------2---2-----------2---2-----------2-----------------| 
A-3-2|-0---------------------------------------------------------0-2-3-| 
E----|-----------------3---------------2---------------0-1-2-3-4-------| 
 
 
 
End 

	  

Solicitar el vídeo de "Keeper Of The Seven Keys" - Descargar Keeper Of The Seven Keys mp3

No existe una video leccione para esta canción

solicitar
140

Envie sus comentários.

0 comentários

 
LosAcordes
Buscar
auto avanzar rasgueos aumentar disminuir cambiar color esconder acordes gráficos
losacordes exhibir acordes losacordes youTube video losacordes ocultar tabs losacordes cambiar notación losacordes ir hacia arriba losacordes