Ha-ash

Início > Ha-ash > acordes

Que Ago Yo Tablatura

Ha-ash

Dificultad:PrincipiantePrincipiante

por nichooxx

tuner correct add songbook print version text version salvar en e-mail
acordesukuleletablaturabajobateríaarmónicaflautacavacopiano Guitar Pro
acordes

Que Ago Yo

	  Espero les guste, es una muy bonita cancion 
con una bonita letra , cualquier duda a mi 
correo, atentamente yo . 


INTRO 2da guiatarra 
          Em                 C              G 
e----------0-----------------0--------------0---------------0-------- 
B--------0---0-------------1---1----------3---3-----------3---3------ 
G------0-------0---------0-------2------0-------0-------2-------2---- 
D----2-----------------2--------------0---------------0-------------- 
A--------------------3----------------------------------------------- 
E--0--------------------------------3---------------2---------------- 

INTRO  1ra guitarra 
e--12---10-------------12--10-12--------------- 
B----12---12-------------12------10------------ 
G------------11-12------------------11-11/12--- 
D-----------------12----------------------12--- 
A---------------------------------------------- 
E---------------------------------------------- 



Entraste como un rayo de luz, Como un aire encantador 
e--------------------------------------------------------- 
B--------3------------------3-----------3--------------3-- 
G------0--0---------------0--0--------0--0-----------2--2- 
D-----4------------------4-----------4-------------0------ 
A---2-------------------3--------------------------------- 
E----------------------------------3-------------2-------- 

Liberaste con tu hechizo a mi recluso corazón 
e------------------------------------------------------ 
B--------3----------- ---3---------3--------------3---- 
G------0--0------------0--0-------0--0-----------2--2-- 
D-----4---------------4----------4-------------0------- 
A---2----------------3--------------------------------- 
E-------------------------------3-------------2-------- 

Tu dulzura corrió por mis venas, Creí en tu intención 
e------------------------------------------------------ 
B--------3--3--------------------------3--3------------ 
G------0--0--------------------------0--0-------------- 
D-----4----4------------------------4----4------------- 
A---2-----------------------------3-------------------- 
E------------------------------------------------------ 

No pensé que fuese un engaño,Ni una mentira tu amor 
e------------------------------------------------------ 
e------------------------------------------------------ 
B----------3--3------------------------------3--3------ 
G---------0-0-------------------------------2-2-------- 
D--------4---4-----------------------------0---0------- 
A------------------------------------------------------ 
E------3---------------------------------2------------- 

Me dices que te está llamando,Te vas sin un adiós 
e------------------------------------------------------- 
B-------3---3--------------------------3--3------------- 
G------0--0---------------------------0-0--------------- 
D-----4----4-------------------------2---2-------------- 
A---2------------------------------3-------------------- 
E------------------------------------------------------- 

Sé muy bien que harás en sus brazos, Dime que hago yo. 
e-------------------------------------------------0----- 
B--------------1---1------------------------3-------3--- 
G-------------0--0-------------------------2--0------0-- 
D-----------2-----2-----------------------0------------- 
A------------------------------------------------------- 
E---------3------------------------------2-------------- 


            *******CORO******** 

                     G                   Em/9 
Que hago con mis labios si me ruegan tus besos 

                    C9                    F#/D 
Que hago con mis manos si suplican tu regreso 


                     G                   Em/9 
Que hago con mis noches que hago con mis días 


                     C9                   F#/D 
Que hago con tu esencia si se aferra a la mía 

               Em 
Dime que hago yo. 


INTERMEDIO 

  1ra guitarra 
e--12---10-------------12--10-12--------------- 
B----12---12-------------12------10------------ 
G------------11-12------------------11-11/12--- 
D-----------------12----------------------12--- 
A---------------------------------------------- 
E---------------------------------------------- 

 2da guitarra 
          Em                 C              G 
e----------0-----------------0--------------0---------------0-------- 
B--------0---0-------------1---1----------3---3-----------3---3------ 
G------0-------0---------0-------2------0-------0-------2-------2---- 
D----2-----------------2--------------0---------------0-------------- 
A--------------------3----------------------------------------------- 
E--0--------------------------------3---------------2---------------- 



Hablamos solo cuando puedes,Te abrazo al esconder 
e------------------------------------------------------ 
B--------3--3---------------- -------3--3-------------- 
G------0--0-------------------------0-0---------------- 
D-----4----4-----------------------4---4--------------- 
A---2----------------------------3--------------------- 
E------------------------------------------------------ 

Que no haría para tenerte a mi lado al amanecer 
e------------------------------------------------------ 
B----------------3---3------------------3--3----------- 
G--------------0---0------------------2--2------------- 
D------------4------4---------------0-----0------------ 
A------------------------------------------------------ 
E---------3-----------------------2-------------------- 

Mis amigos dicen que te olvide,Que antes de ti no era igual 
e-------------0-------------------------------0-------------- 
B-----------3--3----3------------------------3-3---3--------- 
G---------0-----0--------------------------0----0------------ 
D-------4---------4----------------------4--------4---------- 
A-----2--------------------------------3--------------------- 
E------------------------------------------------------------ 

Antes de ti mi vida no tenia sentido,Antes de ti no sabia amar 

e----------------0-------------------------0--------0--------- 
B--------------3--3---3-------------------2-2------2---2------ 
G------------0-----0---------------------3---3----3----------- 
D----------4---------4------------------0--------0------------ 
A------------------------------------------------------------- 
E--------3----------------------------2----------------------- 


     **************CORO************** 

                     G                   Em/9 
Que hago con mis labios si me ruegan tus besos 

                    C9                    F#/D 
Que hago con mis manos si suplican tu regreso 


                     G                   Em/9 
Que hago con mis noches que hago con mis días 


                     C9                   F#/D 
Que hago con tu esencia si se aferra a la mía 

               Em 
Dime que hago yooooooo. 



solo :   guitarra 1 
   ( acompaña al piano ) 
e----------0--------------------------0---------- 
B-------3----3----------------------3---3-------- 
G------0------0-------------------0-------0------ x 2 
D-----2-------------------------0---------------- 
A----3------------------------2------------------ 
E------------------------------------------------ 

    ( piano ) 
e---10-12--14-15----10-12----10-12----------- 
B-12----------------------12----------------- 
G-------------------------------------------- 

e---10-12--14-15----10----15-17----15-15--10-- 
B-12------------------------------------------ 
G--------------------------------------------- 



e------0------------0----------0--------0-------- 
B----3---3--------3---3-------3-3------3-3------- 
G---0-----0-----0-------0----0---0----0---0------ 
D--2----------0-------------2--------0----------- 
A-3----------2-------------3--------2------------ 
E------------------------------------------------ 
             aiiihaaaaiaa   aiiahaiii uoohuuuooooooo 


                   CORO 
                     G                   Em/9 
Que hago con mis labios si me ruegan tus besos 

                    C9                    F#/D 
Que hago con mis manos si suplican tu regreso 


                     G                   Em/9 
Que hago con mis noches que hago con mis días 



                     C9                   F#/D 
Que hago con tu esencia si se aferra a la mía 

               Em/9 
Dime que hago yooooo. 


Dime que hago yooooo.  que hago yooooooo uooouu uuoo 
e------0---------0------------------0-----------0-0-------- 
B-----3-3-------3-3--------3--------3----------3---3------- 
G----0---0-----0---0------0-------2-2---------2-----0------ 
D---2---------0----------2-------0--0--------0-------2----- 
A--3---------2----------3----------------2--2-------------- 
E-------------------------------2-------------------------- 
 
	  

No existe una video leccione para esta canción

request
Aumentar uno tonoAumentar uno tono
Aumentar uno semi-tonoAumentar uno semi-tono
Disminuir uno semi-tonoDisminuir uno semi-tono
Disminuir uno tonoDisminuir uno semi-tono
LosAcordes
Buscar
auto avanzar rasgueos aumentar disminuir cambiar color esconder acordes gráficos
losacordes exhibir acordes losacordes youTube video losacordes ocultar tabs losacordes ir hacia arriba losacordes