A B C D E F G H I J K L M N O P Q R S T U V X Y Z 0-9
Guns N' Roses

Início > Guns N' Ro... > acordes

Guns N' Roses

Don't Cry

Dificultad:PrincipiantePrincipiante

por _slash_rose_

tuner corregir añadir para songbook version para impresion version de texto version rtf e-mail
acordestablaturabaixobateríaarmónicaflautacavacopiano Guitar Pro
acordes

Don't Cry

Áño: 1991 - Álbum: Greatest Hits

(Rose , Stradlin)

Tono:  Am Más
Don't Cry Tono D#mD#m
Don't Cry Tono EmEm
Don't Cry Tono FmFm
Don't Cry Tono F#mF#m
Don't Cry Tono GmGm(Disminuir uno tono)
Don't Cry Tono G#mG#m(Disminuir uno semi-tono)
Don't Cry Tono AmAm(tono original)
Don't Cry Tono A#mA#m(Aumentar uno semi-tono)
Don't Cry Tono BmBm(Aumentar uno tono)
Don't Cry Tono CmCm
Don't Cry Tono C#mC#m
Don't Cry Tono DmDm
	  
Intro: Am/G Am Dm G C Am Dm G 

e|--------------------0-----------------------1-----------| 
B|-----------------------1-----------------3-----3--------| 
G|-----------------2--------2-----------2-----------2-----| 
D|--------------2--------------0--0-----------------------| 
A|---------0-------------------------------------------0--| 
E|---3----------------------------------------------------| 

e|--------------3---------------------------------------| 
B|-----------------3------------------------------------| 
G|-----------0--------0-----------0--------0------------| 
D|--------0--------------------0--------0---------------| 
A|-----2-----------------0---3--------2---------3--2--0-| 
E|--3---------------------------------------------------| 

e|--------0----------------------1----------| 
B|-----------1---------------3------3-------| 
G|-----2--------2---------2------------2----| 
D|--2--------------0--0---------------------| 
A|----------------------------------------0-| 
E|------------------------------------------| 

e|--------------------------| 
B|--------------------------| 
G|-----------0--------------| 
D|--------0-----------------| 
A|-----2--------------------| 
E|--3------------0--3--4--5-| 

Verse: Am Dm G C Am Dm G 

e|--------------------0-----------------------1-----------| 
B|-----------------------1-----------------3-----3--------| 
G|-----------------2--------2-----------2-----------2-----| 
D|--------------2--------------0--0-----------------------| 
A|---------0-------------------------------------------0--| 
E|---3----------------------------------------------------| 

e|--------------3---------------------------------------| 
B|-----------------3------------------------------------| 
G|-----------0--------0-----------0--------0------------| 
D|--------0--------------------0--------0---------------| 
A|-----2-----------------0---3--------2---------3--2--0-| 
E|--3---------------------------------------------------| 

e|----------------------------------0---------------------1-----------| 
B|-------------------------------------1---------------3-----3--------| 
G|------0--------0---------------2--------2---------2-----------2-----| 
D|---0--------0---------------2--------------0--0---------------------| 
A|-3--------2--------3--2--0----------------------------------------0-| 
E|--------------------------------------------------------------------| 

e|--------------3----------------------------------------| 
B|-----------------3-------------------------------------| 
G|-----------0--------0-----------0--------0-------------| 
D|--------0--------------------0--------0----------------| 
A|-----2-----------------0---3--------2---------3--2--0--| 
E|--3---------------------------------------------------1| 

Chorus: F G Am 

e|-1----1------3---3----| 
B|-1------1----3----3---| 
G|-2--------2--4-----4--| 
D|-3-----------5--------| 
A|-3-----------5--------| 
E|-1--1--------3-3------| 

e|-----------0---------1----1------3--3-------------0-------| 
B|-------0-1---1-------1------1----3----3---------1---1---1-| 
G|-----2---------2-----2--------2--0------0-----2-------2---| 
D|---2-----------------3-----------0----------2-------------| 
A|-0-------------------3-----------2--------0---------------| 
E|---------------------1--1--------3------------------------| 

e|----0-0---0------1----1------3---3---| 
B|-3/5-3-3/1--3p1--1------1----3----3--| 
G|-----------------2--------2--0-----0-| 
D|-----------------3-----------0-0-----| 
A|-----------------3-----------2-------| 
E|-----------------1--1--------3-------| 

e|----------------------------------| 
B|----------------------------------| 
G|-----0-------0-------2--------2---| 
D|---0---0---0---0---2---2----2---2-| 
A|-3-------2-------0----------------| 
E|-------------------------3--------| 

e|-1----1------3---3----0--3------| 
B|-1------1----3----3---1----0h1--| 
G|-2--------2--0-----0--2---------| 
D|-3-----------0-0------2---------| 
A|-3-----------2--------0---------| 
E|-1--1--------3------------------| 

Verse 2 : Am Dm G C  

e|---------------------------------| 
B|---------------------------------| 
G|-----0-------0-------2-------2---| 
D|---0---0---0---0---2---2---2---2-| 
A|-3-------2-------0---------------| 
E|-------------------------3-------| 

Chorus 2: F G Am F G Am  

e|-----------------------5---------------------------------| 
B|-3b5-3(b5)-3(b5)-3(b5)---3(b5)-3(b5)-3(b5)-3(b5)r3-3p1-1-| 
G|---------------------------------------------------------| 
D|---------------------------------------------------------| 
A|---------------------------------------------------------| 
E|---------------------------------------------------------| 


Pré-Solo: C5 B5+ A5 G5 F5 G5 


Solo: 

e|---------------------------------------------------------------| 
B|------------------------8-------------8-8----------------------| 
G|-7b9r7p5-7--7b9r7p5-7b9---7b9r7p5-7b9-----7(b9)r7-5------------| 
D|-x--------------------------------------------------7-5--------| 
A|-x------------------------------------------------------7-5/3--| 
E|---------------------------------------------------------------| 

e|---------------------------------------------------------| 
B|---------------------------------------15b17-13----------| 
G|-7/9-9/10-----------------------12h14-----------14-12----| 
D|--------------------10h12-12/14-----------------------14-| 
A|-5/7-7/8-8h10-10/12--------------------------------------| 
E|---------------------------------------------------------| 

e|--------------------------------------------| 
B|--------------------------------------------| 
G|--------------------------------------------| 
D|-13h14p13-12h13p12/10-12h10-------10b-------| 
A|----------------------------12-10-----12-10-| 
E|--------------------------------------------| 

e|-------15---------15----------------------15-15-------------------| 
B|-15b17----15(b17)----15(b17)r15p13--15b17-------15(b17)r15-13/12--| 
G|------------------------------------------------------------------| 
D|------------------------------------------------------------------| 
A|------------------------------------------------------------------| 
E|------------------------------------------------------------------| 

e|-------------------------13-------------------------------| 
B|-----12-15-13-12-13--------13-15b17-15--15b17r15----------| 
G|---13---------------14---------------------------12b14-12-| 
D|-14-------------------15----------------------------------| 
A|----------------------------------------------------------| 
E|----------------------------------------------------------| 

e|------------------------------------| 
B|------------------------------------| 
G|--------------------------12--------| 
D|---14-13-12-10\9----------12b14r12--| 
A|------------------------------------| 
E|------------------------------------| 

Verse 3: Dm G C Am Dm G C Am Dm G C Am Dm G C5 B5+ A5 G5 F5 

End Chorus: F5 G5 F5 G5 F5 G5 E5 F5 G5 F5 G5 F5 G5 C5 

e|---------------------------------------------------------------| 
B|-15b17-15(b17)-15(b17)-15(b17)-15(b17)-15(b17)r15-13-15p13-----| 
G|-----------------------------------------------------------14/-| 
D|---------------------------------------------------------------| 
A|---------------------------------------------------------------| 
E|---------------------------------------------------------------| 

e|15b17-15(b17)-15-12------------------------15-15----------------| 
B|x-------------------15b17r15p13-15-13-15b17------15(b17)r15-13--| 
G|x---------------------------------------------------------------| 
D|x---------------------------------------------------------------| 
A|x---------------------------------------------------------------| 
E|x---------------------------------------------------------------| 

e|-------------------------------| 
B|-15b17-15-13-12b13r12-10-10/12-| 
G|-------------------------------| 
D|-------------------------------| 
A|-------------------------------| 
E|-------------------------------| 

	  

Solicitar el vídeo de "Don't Cry" - Descargar Don't Cry mp3

No existe una video leccione para esta canción

solicitar
Aumentar uno tonoAumentar uno tono
Aumentar uno semi-tonoAumentar uno semi-tono
Disminuir uno semi-tonoDisminuir uno semi-tono
Disminuir uno tonoDisminuir uno semi-tono
140

Envie sus comentários.

1 comentários

NouminouNouminou
hace 864 años atrás
I love this song! :)
 
LosAcordes
Buscar
auto avanzar rasgueos aumentar disminuir cambiar color esconder acordes gráficos
losacordes exhibir acordes losacordes youTube video losacordes ocultar tabs losacordes cambiar notación losacordes ir hacia arriba losacordes