A B C D E F G H I J K L M N O P Q R S T U V X Y Z 0-9
Guns N' Roses

Início > Guns N' Ro... > acordes

Guns N' Roses

Ain't It Fun

Dificultad:Ningún gradoNingún grado

por Teusalves

tuner corregir añadir para songbook version para impresion version de texto version rtf e-mail
acordestablaturabajobateríaarmónicaflautacavacopiano Guitar Pro
acordes

Ain't It Fun

Áño: 1993 - Álbum: Greatest Hits

(Chroeme , Laughner)

	  E-7~7-9-10-------------------------------------------------------  
A----------7-9-12------------------------------------------------  
D-----------------9~~~9-11-12-11-12------12----------------------  
G-----------------------------------9-10----10-------------------  
B----------------------------------------------------------------  
e----------------------------------------------9-11-12/14-14full-  
  
E  
A-----------------------------------------------------------------  
D-----------------------------------------------------------------  
G-----------------------------10---10-----------------------------  
B----------------11f-11-10-8f----8----9-9-11-11-9-8-9-8-10-10-9-10  
e-12-14-11--9-11--------------------------------------------------  
  
E-----------------------------------------------------------------  
A-----------------------------------------------------------------  
D-----------------------------------------------------------------  
G---10/11--7-7-9-7-10-10f-9-10-7-9-7-10-10-9-10-9-7-7--7-9-10-----  
B-9-----------------------------------------------------------9-9-  
e-----------------------------------------------------------------  
  
E-----------------------------------------------------------------  
A-----------------------------------------------------------------  
D-----------------------------------------------------------------  
G-10-9-10-7-7--7-9-7-10-10---10-9-10-7--7-7-9-10-----10-9-10-10-7-  
B--------------------------9---------------------9-9--------------  
e-----------------------------------------------------------------  
  
E-----------------------------------------------------------------  
A-----------------------------------------------------------------  
D-----------------------------------------------------------------  
G-9-7-10-9-10-8-9-7-8-6/7-----------------------------------------  
B-----------------------------------------------------------------  
e----------------------------------------------------------------- 
	  

Solicitar el vídeo de "Ain't It Fun" - Descargar Ain't It Fun mp3

No existe una video leccione para esta canción

solicitar
Aumentar uno tonoAumentar uno tono
Aumentar uno semi-tonoAumentar uno semi-tono
Disminuir uno semi-tonoDisminuir uno semi-tono
Disminuir uno tonoDisminuir uno semi-tono
140

Envie sus comentários.

0 comentários

 
LosAcordes
Buscar
auto avanzar rasgueos aumentar disminuir cambiar color esconder acordes gráficos
losacordes exhibir acordes losacordes youTube video losacordes ocultar tabs losacordes cambiar notación losacordes ir hacia arriba losacordes