A B C D E F G H I J K L M N O P Q R S T U V X Y Z 0-9
Guns N' Roses

Início > Guns N' Ro... > acordes

Guns N' Roses

Ain?t it fun

Dificultad:AdelantadoAdelantado

por tonhotkd

tuner corregir añadir para songbook version para impresion version de texto version rtf e-mail
acordestablaturabajobateríaarmónicaflautacavacopiano Guitar Pro
acordes

Ain?t it fun

	  (May not be completely correct. Improvise on the Pentatonic scale) 
 
Intro 
e -------------------------------- 
B -------------------------------- 
G -------------------------------- 
D --------------------7--9~~~9~~~- 
A ---------------7--9------------- 
E ?7~~~7?-9--10~------------------ 
 
e -----------------7----7~- 
B -------------10----10---- 
G ----7?9-7-9b------------- 
D -9----------------------- 
A ------------------------- 
E ------------------------- 
 
e -7-10-12-12b---12r-10-12-10~-10--7------7~~ 
B ------------------------------------10?---- 
G ------------------------------------------- 
D ------------------------------------------- 
A ------------------------------------------- 
E ------------------------------------------- 
 
e -----------------------7--------------------------- 
B ?10br-7-----------7-10---10------------------------ 
G --------9br-9-7-9-----------9br-9-9b---7--6-------- 
D ---------------------------------------------7?-9~~ 
A --------------------------------------------------- 
E --------------------------------------------------- 
 
e ---------------------------------------- 
B --------------------------7-7----------- 
G ----7-9-7-9b---9r-7-9-7-9-----9p7-9p7--- 
D -9------------------------------------9- 
A ---------------------------------------- 
E ---------------------------------------- 
 
e --------10------------------------7------------ 
B ------------------------------7-7---7---------- 
G -7-9-9b----9r-7-9-7-----7-9-7---------9-9-7---- 
D ---------------------9~---------------------9~- 
A ----------------------------------------------- 
E ----------------------------------------------- 
 
e ------------------------------------------------------------- 
B ----------10-10--------------7------------------------------- 
G ---7-9-9b-------9r--7--7-9-7---9-7-9--7-6-7--9---7---6------- 
D -9---------------------------------------------9---9---7-9~~~ 
A ------------------------------------------------------------- 
E ------------------------------------------------------------- 
                               ^--------------fast-------------^ 
 
 
Ain't it fun when you're always on the run 
e -------------                       
B -x-x--------- 
G -x-x--------- 
D -x-x-7-9-7-9- 
A -----7-9-7-9- 
E ------------- 
 
Ain't it fun when your friends despise what you've become 
e -------------- 
B -------------- 
G -----------7~- 
D -x-x-9-7-9-7~- 
A -----9-7-9---- 
E -------------- 
 
Ain't it fun when you get so high... that you just can't come 
e ---------- 
B ---------- 
G --7------- 
D ----7-9~-- 
A ---------- 
E ---------- 
 
 
Ain't it fun when you know that you gonna die young 
e --------------- 
B --------------- 
G --------------- 
D --------------- Riff 1 
A -9/7/9/7/9/7/9-    
E -7/5/7/5/7/5/7- 
 
 Riff 2: 
e ---------------------------------------------------------------- 
B ---------------------------------------------------------------- 
G ---------------------------------------------------------------- 
D --5---5-5---5-5-5---7---7-7---7-7-7----9--7---9-7-9---9--7--9---   
A --5---5-5---5-5-5---7---7-7---7-7-7----9--7---9-7-9---9--7--9--- 
E --3---3-3---3-3-3---5---5-5---5-5-5----7--5---7-5-7---7--5--7--- 
 
             Such Fun! (10 times) 
e -------------------------- 
B ------10------------------ 
G ---9b-----7-9-7---9---7--- 
D ?9~----------------9---9-- 
A -------------------------- 
E -------------------------- 
       
Ain't it fun when you're taking care of number one 
e --------------- 
B --------------- 
G ---7-9-7-9b---- 
D ------------9~- 
A --------------- 
E --------------- 
 
Ain't it fun when you feel like you just gotta get a gun 
e -------------------- 
B -------------10-12~- 
G -7-9-11-7-11-------- 
D -------------------- 
A -------------------- 
E -------------------- 
 
Ain't it fun when you just can't seem to find your tongue 
e -10------- 
B ----10h12- 
G ---------- 
D ---------- 
A ---------- 
E ---------- 
 
Cause you stuck it too deep into something that really stung 
e -14-14p12p10-7- 
B --------------- 
G --------------- 
D --------------- 
A --------------- 
E --------------- 
  
It's such fun! 
 Riff 2: 
Then 
 Riff 3: 
e ------------------------------------------------------------------ 
B ------------------------------------------------------------------ 
G ------------------------------------------------------------------ 
D -5--5-5--5-5-5--7--7-7--7-7-7--12--12-12--12-12-12--9--9-9--9-9-9- 
A -5--5-5--5-5-5--7--7-7--7-7-7--12--12-12--12-12-12--9--9-9--9-9-9- 
E -3--3-3--3-3-3--5--5-5--5-5-5--10--10-10--10-10-10--7--7-7--7-7-7- 
 
Well, so you come up to me to spit right in my face,  
I didn't even feel it, it was such a disgrace 
 
I punched my fist right through the glass 
I didn't even feel it, it happened so fast! 
 
 
 
       Play that 4 
         times 
      |            | 
e -12b--(12)-(12)-(12)---(12)-12r----------------- 
B --------------------------------15-15b-b--12-12- 
G ------------------------------------------------ 
D ------------------------------------------------ 
A ------------------------------------------------ 
E ------------------------------------------------ 
 
e -------14-17b-14-17----- 
B -12-15--------------17b-    
G ------------------------   
D ------------------------ 
A ------------------------ 
E ------------------------                          
 
e ----------------------------------- 
B -17-15-15p14-15p14---12-14b-p12-12- 
G ----------------------------------- 
D ----------------------------------- 
A ----------------------------------- 
E ----------------------------------- 
 
Ain't it fun when you tell her she's just a cunt 
e -7---------------------7- 
B ---10-7---------7-10-7--- 
G --------9-9-9b----------- 
D ------------------------- 
A ------------------------- 
E ------------------------- 
 
Ain't it fun when she splits you and leaves you on the run 
e ------7-9-7-------------- 
B -7-10--------10-12--12b-- 
G ------------------------- 
D ------------------------- 
A ------------------------- 
E ------------------------- 
 
Well, Ain't it fun when you've broken up every band  
that you ever begun 
e ------------------------------------- 
B ------------------------------------- 
G -7-9b-7---7-------------------------- 
D --------9---9--9-11-9-11-9-7h9-7-9-7- 
A ------------------------------------- 
E ------------------------------------- 
 
    Ain't it fun when you know that you're gonna die young 
e ---------------------------------------------- 
B ---------------------------------------------- 
G ---------------------------------------------- 
D -11-9-11b---11-9-11b---11-9-11-9-7-9- then?--- 
A ---------------------------------------------- 
E ---------------------------------------------- 
 
It's such fun! 
 
 
      
 
and then come two guitars:  
e ------------------------- 
B ?12~~~~~~~~~~~~~~~~~~~~~- 
G --------------11~~~~~~~~- 
D ------------------------- 
A ------------------------- 
E ------------------------- 
 
Finish: 
e ----------10-9----------------------------------------- 
B ----10-12------12-10---------------------------12------ 
G -11------------------11---7-9-7----------------11------ 
D --------------------------------9-7-9-7--------9------- 
A ----------------------------------------9-7------------ 
E ------------------------------------------------------ 

	  

Solicitar el vídeo de "Ain?t it fun" - Descargar Ain?t it fun mp3

No existe una video leccione para esta canción

solicitar
Aumentar uno tonoAumentar uno tono
Aumentar uno semi-tonoAumentar uno semi-tono
Disminuir uno semi-tonoDisminuir uno semi-tono
Disminuir uno tonoDisminuir uno semi-tono
140

Envie sus comentários.

0 comentários

 
LosAcordes
Buscar
auto avanzar rasgueos aumentar disminuir cambiar color esconder acordes gráficos
losacordes exhibir acordes losacordes youTube video losacordes ocultar tabs losacordes cambiar notación losacordes ir hacia arriba losacordes