Green Day

Início > Green Day > acordes

Ha Ha You're Dead (solo) Tablatura

Green Day

Dificultad:Ningún gradoNingún grado

por mejuto

tuner correct add songbook print version text version salvar en e-mail
acordesukuleletablaturabajobateríaarmónicaflautacavacopiano Guitar Pro
acordes

Ha Ha You're Dead (solo)

	  Play it after Chorus1 and then in Chorus
 
E|-----------------------------------------------------------------| 
B|-5---5---5---5---6---6---6---6---5---5---5---5---8---8---8---8---| 
G|---5---5---5---5---5---5---5---5---5---5---5---5---7---7---7---7-| 
D|-----------------------------------------------------------------| 
A|-----------------------------------------------------------------| 
E|-----------------------------------------------------------------| 
 
E|--------------------------------------------------------| 
B|-5---5---5---5---6---6---6---6---5---5---3---3----------| 
G|---5---5---5---5---5---5---5---5---5---5---4---4-555555-| 
D|--------------------------------------------------------| 
A|--------------------------------------------------------| 
E|--------------------------------------------------------| 
 
Then play 
 
E|---------------------------------------------------| 
B|-5---5---3---3---1---1---1---1---5---5---3---3-----| 
G|---5---5---4---4---2---2---2---2---5---5---4---4-5-| 
D|---------------------------------------------------| 
A|---------------------------------------------------| 
E|---------------------------------------------------| 

	  

No existe una video leccione para esta canción

request
LosAcordes
Buscar
auto avanzar rasgueos aumentar disminuir cambiar color esconder acordes gráficos
losacordes exhibir acordes losacordes youTube video losacordes ocultar tabs losacordes ir hacia arriba losacordes