Green Day

Início > Green Day > acordes

Fuck Time Tablatura

Green Day

Dificultad:ExpertoExperto

por deivcavalcanti

tuner correct add songbook print version text version salvar en e-mail
acordesukuleletablaturabajobateríaarmónicaflautacavacopiano Guitar Pro
acordes

Fuck Time

	  


 Intro/Verse 1:  Chorus: 
  |6x*******| 
|------------------------------------------------| 
|------------------------------------------------| 
|----12----9\------------------------------------| 
|-12-12-12-9\------------2-2-4-2---------2-2-4-2-| 
|-12-10-12-7\----0-0-4-4---------0-0-4-4---------| 
|-10----10---------------------------------------| 

|--------------------------------------------------| 
|--------------------------------------------------| 
|--------------------------------------------------| 
|------------------------------------------2-2-4-2-| 
|---------2-2-4-2---------2-2-4-2--0-0-4-4---------| 
|-0-0-4-4---------0-0-4-4--------------------------| 

                       Bridge:    
|---------------------------------------------------------| 
|-----------------4----------5-5--------------------------| 
|-----------------4--------2-5-5--7-12----9\-----12----9\-| 
|--------2-2-4-2--4----2-5-2-5-5--7-12-12-9\--12-12-12-9\-| 
|0-0-4-4----------2----2-5-0-3-3--5-10-12-7\--12-10-12-7\-| 
|----------------------0-3-------------10-----10----10----| 
      
      Verse 2:       Chorus: 
      |4x*******| 
|----------------------------------------------------| 
|----------------------------------------------------| 
|-2b\----12----9\------------------------------------| 
|-----12-12-12-9\------------2-2-4-2---------2-2-4-2-| 
|-----12-10-12-7\----0-0-4-4---------0-0-4-4---------| 
|-----10----10---------------------------------------| 

|--------------------------------------------------| 
|--------------------------------------------------| 
|--------------------------------------------------| 
|------------------------------------------2-2-4-2-| 
|---------2-2-4-2---------2-2-4-2--0-0-4-4---------| 
|-0-0-4-4---------0-0-4-4--------------------------| 

                       Bridge: 
|---------------------------------------------| 
|-----------------4----------5-5\-------------| 
|-----------------4--------2-5-5\--7-12----9\-| 
|--------2-2-4-2--4----2-5-2-5-5\--7-12-12-9\-| 
|0-0-4-4----------2----2-5-0-3-3\--5-10-12-7\-| 
|----------------------0-3--------------10----| 

 Solo: 
|----------------------------------12-----------| 
|------------12-10---------12--12--12-12--15b~\-| 
|-2b-2b-2b/\-------12-9-12-14b-14bh---14b-------| 
|-----------------------------------------------| 
|-----------------------------------------------| 
|-----------------------------------------------| 

                              |3x***| 
|-----------------------------\----X---\---| 
|-15b15b15b15b-12p10h---10b~\-\----X---\---| 
|--------------------12p------\----X---\---| 
|-----------------------------\---(2)--\---| 
|-----------------------------\---(2)--\---| 
|----------------------------(12)-(0)-(12)-| 

|-10--10--------10h--10--10--------10h---17----------| 
|-10--10--------10h--10--10--------10h---17----------| 
|-12bh12b-------12b1212bh12b-------12b12/19b---------| 
|--------12-10--------------12-10-----------21-19-17-| 
|-------------12-----------------12------------------| 
|----------------------------------------------------| 

|17--17--17----------16b15-------------------------12*-| 
|17--17--17--15b~--17-----17-15-15b-15p13h15b15-12*----| 
|19bh19bh19bh------------------------------------------| 
|------------------------------------------------------| 
|------------------------------------------------------| 
|------------------------------------------------------| 

|----------------------------------------| 
|-12h~-12-12-12-12~-/16h~-16-16-16-16~\--| 
|-14bh~14b14b14b14b~/18bh~18b18b18b18b~\-| 
|----------------------------------------| 
|----------------------------------------| 
|----------------------------------------| 

 Bridge:            Outro: 
                                |3x*******| 
|-------------------------------------------------------------| 
|---------------5-5-------------------------------------------| 
|-----2-5-----2-5-5--7-12----9\-----12----9\-2b~-----12----9\-| 
|-2-5-2-5-2-5-2-5-5--7-12-12-9\--12-12-12-9\------12-12-12-9\-| 
|-2-5-0-3-2-5-0-3-3--5-10-12-7\--12-10-12-7\------12-10-12-7\-| 
|-0-3-----0-3-------------10-----10----10---------10----10----| 
	  

No existe una video leccione para esta canción

request
LosAcordes
Buscar
auto avanzar rasgueos aumentar disminuir cambiar color esconder acordes gráficos
losacordes exhibir acordes losacordes youTube video losacordes ocultar tabs losacordes ir hacia arriba losacordes