Francisco Tárrega

Início > Francisco ... > acordes

La Paloma Tablatura

Francisco Tárrega

Dificultad:FácilFácil

por hebealmeida

tuner correct add songbook print version text version salvar en e-mail
acordesukuleletablaturabajobateríaarmónicaflautacavacopiano Guitar Pro
acordes

La Paloma

	                                                              
E||----------------------|----------------------|----------------------| 
B||----------------------|----------------------|--0----2----4----5----| 
G||--1/---4--------------|------------1----2----|----------------------| 
D||-----------------2----|----------------------|----------------------| 
A||------------2---------|--2-------------------|----------------------| 
E||-------0--------------|-------0--------------|------------0---------| 


                                                                      
----------------------|----------------------|------------2----2----| 
--2----4----0---------|----------------------|----------------------| 
-----------------2----|----------------------|----------------------| 
----------------------|-------1--------------|-------1--------------| 
----------------------|--2---------2---------|--2--------------2----| 
-----------------2----|-----------------2----|----------------------| 


                                                                      
----------------------|--4---------2---------|----------------------| 
----------------------|-------5---------4----|--5----4----2----0----| 
-------2--------------|------------2---------|----------------------| 
--1---------1---------|----------------------|-----------------1----| 
-----------------2----|----------------------|--2-------------------| 
----------------------|----------------------|----------------------| 


                                                                      
----------------------|----------------------|----------------------| 
----------------------|----------------------|----------------------| 
--2----1--------------|----------------------|--1/---4--------------| 
-----------------2----|-----------------2----|-----------------2----| 
------------2---------|--2---------2---------|------------2---------| 
-------0--------------|-------0--------------|-------0--------------| 


                                                                      
----------------------|----------------------|----------------------| 
----------------------|--0----2----4----5----|--2----4----0---------| 
------------1----2----|----------------------|-----------------2----| 
----------------------|----------------------|----------------------| 
--2-------------------|----------------------|----------------------| 
-------0--------------|------------0---------|-----------------2----| 


                                                                      
----------------------|------------2----2----|----------------------| 
----------------------|----------------------|----------------------| 
----------------------|----------------------|-------2--------------| 
-------1--------------|-------1--------------|--1---------1---------| 
--2---------2---------|--2--------------2----|-----------------2----| 
-----------------2----|----------------------|----------------------| 


                                                                      
--4---------2---------|----------------------|----------------------| 
-------5---------4----|--5----4----2----0----|----------------------| 
------------2---------|----------------------|--2----1--------------| 
----------------------|-----------------1----|-----------------2----| 
----------------------|--2-------------------|------------2---------| 
----------------------|----------------------|-------0--------------| 


                                                                      
-------0----0----0----|-------2----2----0----|----------------------| 
-------0--------------|--4----0--------------|--4----2----2----0----| 
-------1--------------|-------1--------------|----------------------| 
-----------------2----|----------------------|--0-------------------| 
--2-------------------|-----------------2----|----------------------| 
-------0--------------|-------0--------------|------------2---------| 


                                                                      
----------------------|----------------------|----------------------| 
----------------------|-----------------4----|--4----4----4----2----| 
----------------------|-----------------2----|--2----2----2----2----| 
-------1--------------|-------1--------------|----------------------| 
--2---------2---------|--2---------2---------|----------------------| 
-----------------2----|-----------------2----|-------2--------------| 


                                                                      
----------------------|----------------------|----------------------| 
--2----0----0---------|--0----0----0---------|----------------------| 
--2----2----2---------|--2----2---------2----|--1-------------------| 
----------------------|------------2---------|------------2---------| 
-----------------2----|----------------------|-------2---------2----| 
--2-------------------|------------0---------|--0-------------------| 


                                                                        
-----------------------||----------------------|----------------------| 
-----------------------||--0-------------------|-----------------0----| 
----------------------*||-------2----1---------|-----------------1----| 
------------2---------*||--2-------------------|--2-------------------| 
-------2---------2-----||-----------------2----|-------2--------------| 
--0--------------------||--0---------0---------|------------0---------| 


                                                                      
----------------------|----------------------|----------------------| 
--0----0----2---------|--0-------------------|-------0----0----0----| 
--1----1---------3----|--1-------------------|-------1----1----1----| 
----------------------|------------2---------|----------------------| 
-------2--------------|-------2---------2----|-----------------2----| 
----------------------|--0-------------------|--0-------------------| 


                                                                      
-----------------2----|-------4---------2----|----------------------| 
--0----2----4----4----|------------5---------|--4----5----2----4----| 
--1----2----4----2----|----------------------|------------2---------| 
----------------------|----------------------|----------------------| 
-----------------2----|--2-------------------|------------2---------| 
------------2---------|----------------------|----------------------| 


                                                                         
----------------------|-----------------------|-----------------------|| 
--5----9----7---------|------------------0----|-----------------------|| 
----------------------|-----------------------|--1-------------------*|| 
-------9---------4----|--6----7----11---------|--2---------2---------*|| 
----------------------|-----------------------|-------2---------2-----|| 
----------------------|-----------------------|--0--------------------|| 


                                                                      
----------------------|-----------------0----|-------0---------0----| 
----------------------|------------0----0----|--0----0----0----0----| 
----------------------|------------1---------|--1----1----1---------| 
--4----3----4----7----|--6-------------------|----------------------| 
----------------------|----------------------|----------------------| 
-----------------7----|-------0--------------|-------0--------------| 


                                                                      
----------------------|----------------------|-------0---------0----| 
--0----4---------4----|-------4---------4----|-------0----0----0----| 
--1----2----4----2----|--4----2----4----2----|--4----1----1---------| 
----------------------|----------------------|----------------------| 
-------2--------------|-------2--------------|----------------------| 
----------------------|----------------------|-------0--------------| 


                                                                      
-------0---------0----|----------------------|----------------------| 
--0----0----0----0----|--0----4---------4----|-------4----4----4----| 
--1----1----1---------|--1----2----4----2----|--4----2----2----2----| 
----------------------|----------------------|----------------------| 
----------------------|-------2--------------|-------2--------------| 
-------0--------------|----------------------|----------------------| 


                                          
------------0----12----|--12----12-----|| 
--4---------0----12----|--12----12-----|| 
--2----4----1----13----|--13----13----*|| 
-----------------------|--------------*|| 
-----------------------|---------------|| 
------------0----------|--------0------|| 
	  

No existe una video leccione para esta canción

request
LosAcordes
Buscar
auto avanzar rasgueos aumentar disminuir cambiar color esconder acordes gráficos
losacordes exhibir acordes losacordes youTube video losacordes ocultar tabs losacordes ir hacia arriba losacordes