A B C D E F G H I J K L M N O P Q R S T U V X Y Z 0-9
Foo Fighters

Início > Foo Fighte... > acordes

Foo Fighters

Everlong Acoustic

Dificultad:PrincipiantePrincipiante

tuner corregir añadir para songbook version para impresion version de texto version rtf e-mail
acordestablaturabajobateríaarmónicaflautacavacopiano Guitar Pro
acordes

Everlong Acoustic

	  Tuning: Drop D, (DADGBe) 
 
this is my version of the tab, most people miss the extra G string notes that are being played so i'm pretty sure this is 100% correct 
 
i modified it a bit, should be better 
 
Verse 
e|-------------------------------------------| 
B|-------------------------------------------| 
G|------11---11-11---11-----11---11-11-11----| 
D|------11---11-11---11-----11---11-11-11----| 
A|------9----9--9----9------9----9--9--9-----| 
D|--0-0----0-------0----0-0----0----------0--| 
 
e|-------------------------------------------| 
B|-------------------------------------------| 
G|------11---11-11---11-----11---11-11-11----| 
D|------11---11-11---11-----11---11-11-11----| 
A|------9----9--9----9------9----9--9--9-----| 
D|--9-9----9-------9----9-9----9----------9--| 
 
e|------------------------------------------------------------| 
B|------------------------------------------------------------| 
G|-----7-7-------7-------11-11-------11-------11-------11-----| 
D|-----7-7-------7-------11-11-------11-------11-------11-----| 
A|-----5-5-------5-------9--9--------9--------9--------9------| 
D|-5-5-----5-5-5---5/9-9-------9-9-9----9-9-9----9-9-9-----9--| 
 
Pre-Chorus 
e|--------------------------------------------------| 
B|--------------------------------------------------| 
G|--6-6-6/7-7-7/9-9-9/11-11-11-11/12----------------| 
D|--X-X-X/X-X-X/X-X-X/X--X--X--X-/X--7--7-7--7-7-7--| 
A|--4-4-4/5-5-5/7-7-7/9--9--9--9-/10-7--7-7--7-7-7--| 
D|--0-0-0/0-0-0/0-0-0/0--0--0--0-/0--7--7-7--7-7-7--| (Play twice) 
 
e|-----------------------------------| 
B|-----------------------------------| 
G|--6-6-6/7-7-7/9-9-9/11-11-11-11/12-| 
D|--X-X-X/X-X-X/X-X-X/X--X--X--X-/X--| 
A|--4-4-4/5-5-5/7-7-7/9--9--9--9-/10-| 
D|--0-0-0/0-0-0/0-0-0/0--0--0--0-/0--| 
 
Chorus 
e|--------------------------------------------------------------| 
B|--------------------------------------------------------------| 
G|--------------------------------7--7-7--7-7-7--7-7-7-7-7-7-7--| 
D|--9--9-9--9-9-9--5--5-5--5-5-5--7--7-7--7-7-7--7-7-7-7-7-7-7--| 
A|--9--9-9--9-9-9--5--5-5--5-5-5--5--5-5--5-5-5--5-5-5-5-5-5-5--| 
D|--9--9-9--9-9-9--5--5-5--5-5-5--------------------------------| (Play twice) 
 
e|--------------------------------------------------------------| 
B|--------------------------------------------------------------| 
G|--------------------------------7--7-7--7-7-7-----------------| 
D|--9--9-9--9-9-9--5--5-5--5-5-5--7--7-7--7-7-7--7--7-7--7-7-7--| 
A|--9--9-9--9-9-9--5--5-5--5-5-5--5--5-5--5-5-5--7--7-7--7-7-7--| 
D|--9--9-9--9-9-9--5--5-5--5-5-5-----------------7--7-7--7-7-7--| 
 
e|-------------------------------------| 
B|-------------------------------------| 
G|-------------------------------------| 
D|--5-5-5-5--5-5-5-5--5-5-5-5--5-5-5-5-| 
A|--5-5-5-5--5-5-5-5--5-5-5-5--5-5-5-5-| 
D|--5-5-5-5--5-5-5-5--5-5-5-5--5-5-5-5-| 
 
Play this for the last chorus, skip the block before this one, listen to the strumming 
e|------------------------------------------------------------| 
B|------------------------------------------------------------| 
G|------------------------------------------------------------| 
D|--5-5-5-5-5-5-5--5-5-5-5-5-5-5--5-5-5-5-5-5-5--5-5-5-5-5-5--| 
A|--5-5-5-5-5-5-5--5-5-5-5-5-5-5--5-5-5-5-5-5-5--5-5-5-5-5-5--| 
D|--5-5-5-5-5-5-5--5-5-5-5-5-5-5--5-5-5-5-5-5-5--5-5-5-5-5-5--| 
                                                 wind down to end 
 
Outro 
e|------| 
B|------| 
G|--11--| 
D|--11--| 
A|--9---| 
D|--0---| 
 
NOTE: 
You can also play the: 
e|-----| 
B|-----| 
G|-----| 
D|--9--| 
A|--9--| 
D|--9--| 
 
as: 
 
e|-----| 
B|-----| 
G|--4--| 
D|--4--| 
A|--2--| 
D|-----| 
 
Order: 
Verse x7 
Pre-Chorus 
Chorus 
Verse x3 
Pre-Chorus 
Chorus 
Verse x1 
Pre-chorus x2 (don't go to the 2nd block of the pre-chorus) 
Chorus (skip the last block and play the one for last chorus) 
Outro 
 

	  

Solicitar el vídeo de "Everlong Acoustic" - Descargar Everlong Acoustic mp3

No existe una video leccione para esta canción

solicitar
Aumentar uno tonoAumentar uno tono
Aumentar uno semi-tonoAumentar uno semi-tono
Disminuir uno semi-tonoDisminuir uno semi-tono
Disminuir uno tonoDisminuir uno semi-tono
140

Envie sus comentários.

0 comentários

 
LosAcordes
Buscar
auto avanzar rasgueos aumentar disminuir cambiar color esconder acordes gráficos
losacordes exhibir acordes losacordes youTube video losacordes ocultar tabs losacordes cambiar notación losacordes ir hacia arriba losacordes