First Aid Kit

Início > First Aid ... > acordes

Wills Of The River Tablatura

First Aid Kit

Dificultad:Ningún gradoNingún grado

por IronPower4Ever

tuner correct add songbook print version text version salvar en e-mail
acordesukuleletablaturabajobateríaarmónicaflautacavacopiano Guitar Pro
acordes

Wills Of The River

	  Capo: 8 
Intro 

e|---------------------------------------------------------------------------| 
B|-----0-------0-------0-------0-------0-------0-------0-------0-------------| 
G|---------------------------------------------------------------------------| 
D|-----2-------2-------2-------2-------2-------2-------2-------2-------------| 
A|---------2---------------2---------------2---------------2-----------------| 
E|-0---------------0---------------0---------------0-------------------------| 

e|---------------------------------------------------------------------------| 
B|---------------------------------------------------------------------------| 
G|-----2-------2-------2-------2-------2-------2-------2-------2-------------| 
D|-----2-------2-------2-------2-------2-------2-------2-------2-------------| 
A|---------4---------------4---------------4---------------4-----------------| 
E|-5---------------5---------------5---------------5-------------------------| 

e|---------------------------------------------------------------------------| 
B|-----0-------0-------0-------0-------0-------0-------0-------0-------------| 
G|---------------------------------------------------------------------------| 
D|-----4-------4-------4-------4-------4-------4-------4-------4-------------| 
A|---------2---------------2---------------2---------------2-----------------| 
E|-2---------------2---------------2---------------2-------------------------| 

e|---------------------------------------------------------------------------| 
B|-----0-------0-------0-------0---------------------------------------------| 
G|-------------------------------------2-------2-------2-------2-------------| 
D|-----2-------2-------2-------2-------2-------2-------2-------2-------------| 
A|---------2---------------2---------------4---------------4-----------------| 
E|-0---------------0---------------5---------------5-------------------------| 

e|---------------------------------------------------------------------------| 
B|-----0-------0-------0-------0-------0-------0-------0-------0-------------| 
G|---------------------------------------------------------------------------| 
D|-----4-------4-------4-------4-------4-------4-------4-------4-------------| 
A|---------2---------------2---------------2---------------2-----------------| 
E|-2---------------2---------------2---------------2-------------------------| 

/Verses 1 + 3/ 

e|---------------------------------------------------------------------------| 
B|-----0-------0-------0-------0-------0-------0-------0-------0-------------| 
G|---------------------------------------------------------------------------| 
D|-----2-------2-------2-------2-------2-------2-------2-------2-------------| 
A|---------2---------------2---------------2---------------2-----------------| 
E|-0---------------0---------------0---------------0-------------------------| 

                
e|---------------------------------------------------------------------------| 
B|---------------------------------------------------------------------------| 
G|-----2-------2-------2-------2-------2-------2-------2-------2-------------| 
D|-----2-------2-------2-------2-------2-------2-------2-------2-------------| 
A|---------4---------------4---------------4---------------4-----------------| 
E|-5---------------5---------------5---------------5-------------------------| 

 

e|---------------------------------------------------------------------------| 
B|-----0-------0-------0-------0-------0-------0-------0-------0-------------| 
G|---------------------------------------------------------------------------| 
D|-----4-------4-------4-------4-------4-------4-------4-------4-------------| 
A|---------2---------------2---------------2---------------2-----------------| 
E|-2---------------2---------------2---------------2-------------------------| 

                  

e|---------------------------------------------------------------------------| 
B|-----0-------0-------0-------0-------0-------0-------0-------0-------------| 
G|---------------------------------------------------------------------------| 
D|-----2-------2-------2-------2-------2-------2-------2-------2-------------| 
A|---------2---------------2---------------2---------------2-----------------| 
E|-0---------------0---------------0---------------0-------------------------| 

 

/Verses 2 + 4/ 

e|---------------------------------------------------------------------------| 
B|-----0-------0-------0-------0-------0-------0-------0-------0-------------| 
G|---------------------------------------------------------------------------| 
D|-----2-------2-------2-------2-------2-------2-------2-------2-------------| 
A|---------2---------------2---------------2---------------2-----------------| 
E|-0---------------0---------------0---------------0-------------------------| 

                  
e|---------------------------------------------------------------------------| 
B|---------------------------------------------------------------------------| 
G|-----2-------2-------2-------2-------2-------2-------2-------2-------------| 
D|-----2-------2-------2-------2-------2-------2-------2-------2-------------| 
A|---------4---------------4---------------4---------------4-----------------| 
E|-5---------------5---------------5---------------5-------------------------| 

  

e|---------------------------------------------------------------------------| 
B|-----0-------0-------0-------0-------0-------0-------0-------0-------------| 
G|---------------------------------------------------------------------------| 
D|-----4-------4-------4-------4-------4-------4-------4-------4-------------| 
A|---------2---------------2---------------2---------------2-----------------| 
E|-2---------------2---------------2---------------2-------------------------| 

                 
e|---------------------------------------------------------------------------| 
B|-----0-------0-------0-------0-------0-------0-------0-------0-------------| 
G|---------------------------------------------------------------------------| 
D|-----2-------2-------2-------2-------2-------2-------2-------2-------------| 
A|---------2---------------2---------------2---------------2-----------------| 
E|-0---------------0---------------0---------------0-------------------------| 

 
. 

e|---------------------------------------------------------------------------| 
B|-----0-------0-------0-------0-------0-------0-------0-------0-------------| 
G|---------------------------------------------------------------------------| 
D|-----2-------2-------2-------2-------2-------2-------2-------2-------------| 
A|---------2---------------2---------------2---------------2-----------------| 
E|-0---------------0---------------0---------------0-------------------------| 

                  
e|---------------------------------------------------------------------------| 
B|---------------------------------------------------------------------------| 
G|-----2-------2-------2-------2-------2-------2-------2-------2-------------| 
D|-----2-------2-------2-------2-------2-------2-------2-------2-------------| 
A|---------4---------------4---------------4---------------4-----------------| 
E|-5---------------5---------------5---------------5-------------------------| 

  
e|---------------------------------------------------------------------------| 
B|-----0-------0-------0-------0-------0-------0-------0-------0-------------| 
G|---------------------------------------------------------------------------| 
D|-----4-------4-------4-------4-------4-------4-------4-------4-------------| 
A|---------2---------------2---------------2---------------2-----------------| 
E|-2---------------2---------------2---------------2-------------------------| 

                 

e|---------------------------------------------------------------------------| 
B|-----0-------0-------0-------0---------------------------------------------| 
G|-------------------------------------2-------2-------2-------2-------------| 
D|-----2-------2-------2-------2-------2-------2-------2-------2-------------| 
A|---------2---------------2---------------4---------------4-----------------| 
E|-0---------------0---------------5---------------5-------------------------| 

  

e|---------------------------------------------------------------------------| 
B|-----0-------0-------0-------0-------0-------0-------0-------0-------------| 
G|---------------------------------------------------------------------------| 
D|-----4-------4-------4-------4-------4-------4-------4-------4-------------| 
A|---------2---------------2---------------2---------------2-----------------| 
E|-2---------------2---------------2---------------2-------------------------| 

e|---------------------------------------------------------------------------| 
B|-----0-------0-------0-------0---------------------------------------------| 
G|-------------------------------------2-------2-------2-------2-------------| 
D|-----2-------2-------2-------2-------2-------2-------2-------2-------------| 
A|---------2---------------2---------------4---------------4-----------------| 
E|-0---------------0---------------5---------------5-------------------------| 

e|---------------------------------------------------------------------------| 
B|-----0-------0-------0-------0-------0-------0-------0-------0-------------| 
G|---------------------------------------------------------------------------| 
D|-----4-------4-------4-------4-------4-------4-------4-------4-------------| 
A|---------2---------------2---------------2---------------2-----------------| 
E|-2---------------2---------------2---------------2-------------------------| 

/Interlude/ (play twice) 

e|---------------------------------------------------------------------------| 
B|-----0-------0-------0-------0-------0-------0-------0-------0-------------| 
G|---------------------------------------------------------------------------| 
D|-----2-------2-------2-------2-------2-------2-------2-------2-------------| 
A|---------2---------------2---------------2---------------2-----------------| 
E|-0---------------0---------------0---------------0-------------------------| 

  -Ooooh...... 

e|---------------------------------------------------------------------------| 
B|---------------------------------------------------------------------------| 
G|-----2-------2-------2-------2-------2-------2-------2-------2-------------| 
D|-----2-------2-------2-------2-------2-------2-------2-------2-------------| 
A|---------4---------------4---------------4---------------4-----------------| 
E|-5---------------5---------------5---------------5-------------------------| 

  -Ooooh...... 

e|---------------------------------------------------------------------------| 
B|-----0-------0-------0-------0-------0-------0-------0-------0-------------| 
G|---------------------------------------------------------------------------| 
D|-----4-------4-------4-------4-------4-------4-------4-------4-------------| 
A|---------2---------------2---------------2---------------2-----------------| 
E|-2---------------2---------------2---------------2-------------------------| 

  -Ooooh...... 

e|---------------------------------------------------------------------------| 
B|-----0-------0-------0-------0-------0-------0-------0-------0-------------| 
G|---------------------------------------------------------------------------| 
D|-----2-------2-------2-------2-------2-------2-------2-------2-------------| 
A|---------2---------------2---------------2---------------2-----------------| 
E|-0---------------0---------------0---------------0-------------------------| 


/Final verse/ 

e|---------------------------------------------------------------------------| 
B|-----0-------0-------0-------0-------0-------0-------0-------0-------------| 
G|---------------------------------------------------------------------------| 
D|-----2-------2-------2-------2-------2-------2-------2-------2-------------| 
A|---------2---------------2---------------2---------------2-----------------| 
E|-0---------------0---------------0---------------0-------------------------| 

                   

e|---------------------------------------------------------------------------| 
B|---------------------------------------------------------------------------| 
G|-----2-------2-------2-------2-------2-------2-------2-------2-------------| 
D|-----2-------2-------2-------2-------2-------2-------2-------2-------------| 
A|---------4---------------4---------------4---------------4-----------------| 
E|-5---------------5---------------5---------------5-------------------------| 

 

e|---------------------------------------------------------------------------| 
B|-----0-------0-------0-------0-------0-------0-------0-------0-------------| 
G|---------------------------------------------------------------------------| 
D|-----4-------4-------4-------4-------4-------4-------4-------4-------------| 
A|---------2---------------2---------------2---------------2-----------------| 
E|-2---------------2---------------2---------------2-------------------------| 

                  

e|-----------------------------------------------------------------------0---| 
B|-----0-------0-------0-------0-------0-------0-------0-------0---------0---| 
G|-----------------------------------------------------------------------1---| 
D|-----2-------2-------2-------2-------4-------4-------4-------4---------2---| 
A|---------2---------------2---------------2---------------2-------------2---| 
E|-0---------------0---------------2---------------2---------------------0---| 

 . 


 
	  

No existe una video leccione para esta canción

request
LosAcordes
Buscar
auto avanzar rasgueos aumentar disminuir cambiar color esconder acordes gráficos
losacordes exhibir acordes losacordes youTube video losacordes ocultar tabs losacordes ir hacia arriba losacordes