A B C D E F G H I J K L M N O P Q R S T U V X Y Z 0-9
Fernando Delgadillo

Início > Fernando D... > acordes

Fernando Delgadillo

Hoy ten miedo de mi

Dificultad:ExpertoExperto

por dozel_2001

tuner corregir añadir para songbook version para impresion version de texto version rtf e-mail
acordestablaturabajobateríaarmónicaflautacavacopiano Guitar Pro
acordes

Hoy ten miedo de mi

	  UN tab muy bien hecho dedicado a mi bebita Karen Paola  
  
  
1|----------8-------|----------8-------|----------8-------|----------8-------|E  
2|-------8--------8-|-------8--------8-|-------8--------8-|-------8--------8-|B  
3|----0-------------|----0-------------|----0-------------|----0-------------|G  
4|-------------0----|-------------0----|-------------0----|-------------0----|d  
5|------------------|------------------|------------------|------------------|a  
6|-8----------------|-8----------------|-8----------------|-8----------------|e  
  
1|------------------|------------------|------------------|------------------|E  
2|-------8--------8-|-------5--------0-|-------0--------0-|-------1--------0-|B  
3|----0--------0----|----0--------0----|----0--------0----|----0--------0----|G  
4|------------------|------------------|-0----------------|------------------|d  
5|------------------|-7--------0-------|------------------|-3--------2-------|a  
6|-8--------7-------|------------------|----------3-------|------------------|e  
  
1|----------0-------|----------3p-2----|-2-----------0h-2-|----------3-------|E  
2|-------3--------3-|-------3--------3-|----------3-------|-------3--------3-|B  
3|----0--------0----|----2-------------|-------2----------|----2--------2----|G  
4|------------------|-0----------------|----0-------------|-0----------------|d  
5|-0----------------|------------------|------------------|------------------|a  
6|------------------|------------------|------------------|------------------|e  
  
1|-3----------------|------------------|-------------0h-3-|------------------|E  
2|----------3-------|-------3----------|----------3-------|------------------|B  
3|-------2----------|----0-----------0-|-------2----------|----------------0-|G  
4|----0-------------|------------------|-0--4-------------|----------0h-2----|d  
5|----------------0-|----------0h-2----|------------------|-0h-2h-3----------|a  
6|------------------|-3----------------|------------------|------------------|e  
  
1|------------------|------------------|----------0-------|------------------|E  
2|------------------|-------3--------3-|-------0----------|----------1-------|B  
3|----------------0-|----0--------0----|----0-------------|-------0----------|G  
4|------------------|-0----------------|------------------|----2-------------|d  
5|----------0h-2----|------------------|-------------0--2-|-3-----------2--3-|a  
6|-0h-2h-3----------|----------2-------|-0----------------|------------------|e  
  
1|----------3-------|-------3----------|------------------|------------------|E  
2|-------3----------|----3-----------3-|-------3--------0-|-------1--------1-|B  
3|----2-------------|-0-----------0----|----0--------0----|----0--------0----|G  
4|-0-----------2--4-|----------4-------|-2--------0-------|------------------|d  
5|------------------|------------------|------------------|-3--------2-------|a  
6|------------------|------------------|------------------|------------------|e  
  
1|------------------|------------------|-2----------------|------------------|E  
2|-------1--------1-|-------1--------1-|------------------|-------0--------0-|B  
3|----0--------0----|----0--------2----|------------------|----0--------0----|G  
4|------------------|----------0-------|-------0----------|------------------|d  
5|-0----------------|------------------|----------3--2--0-|----------2-------|a  
6|----------3-------|-2----------------|----3-------------|-3----------------|e  
  
1|------------------|------------------|-------3----------|------------------|E  
2|------------------|-------0--1p-0----|-1-----------1p-0-|-------0--------1-|B  
3|-------------2p-0-|----0-----0-----0-|----0-------------|----0--------0----|G  
4|----------0-------|------------------|----------0-------|------------------|d  
5|-0--2--3----------|------------------|-3----------------|------------------|a  
6|------------------|-3----------------|------------------|-0--------3-------|e  
  
1|----3-------------|-3----------------|------------------|-3----------------|E  
2|-------1--------0-|----0--1--0-------|----------------3-|-------3--------3-|B  
3|-------------0----|------------------|-0-----------0----|-------------0----|G  
4|-0----------------|----0--2--0-----0-|-------0----------|----0-------------|d  
5|------------------|------------------|------------------|------------------|a  
6|----------3-------|-------------3----|----3-----3-------|----------3-------|e  
  
1|-3----------------|-3----------------|-3-----3----------|------------------|E  
2|-------3--------3-|-------3--------3-|----------------3-|-------0--------1-|B  
3|-------------0----|-------------0----|-------------0----|----0--------0----|G  
4|----0-------------|----0-------------|----0-------------|------------------|d  
5|------------------|------------------|------------------|------------------|a  
6|----------3-------|----------3-------|----------3-------|-2--------0-------|e  
				Hoy que llevoenla bocael sabor a venci do pro  
1|------------------|------------------|------------------|----------2-------|E  
2|-------1--------1-|-------1--------1-|-------1--------1-|-------1--------1-|B  
3|----0--------0----|----0--------0----|----0--------0----|----2--------2----|G  
4|-0----------------|------------------|------------------|-0----------------|d  
5|----------3-------|-2--------0-------|------------------|------------------|a  
6|------------------|------------------|-3--------2-------|------------------|e  
   cura tener  a la mano a un amigo que cuide tu frente y tu voz,	y que  
1|----------3-------|-0----------------|------------------|------------------|E  
2|-------3-----0h-1-|----3p-1--------3-|-------0--------1-|-------1--------1-|B  
3|----0-------------|-------------0----|----0--------0----|----0--------0----|G  
4|-0----------------|------------------|------------------|-0----------------|d  
5|------------------|-3----------------|------------------|----------3-------|a  
6|----------3-------|----------3-------|-2--------0-------|------------------|e  
   cuide de tí para  tí tus vestidos y a tus pensamientos mantenlos atentosya  
1|------------------|------------------|----0h-3----------|------------------|E  
2|-------1--------3-|------------------|-3----------------|----------------3-|B  
3|----0--------0----|-------0--------2-|------------------|----2p-0-----0----|G  
4|-0----------------|----------0--4----|------------------|-0----------------|d  
5|------------------|-0h-2-------------|----------0h-2h-3-|------------------|a  
6|----------3-------|------------------|------------------|----------3-------|e  
la mano tu amigo.  
1|----------------3-|------------------|-------------3----|----3-------------|E  
2|-3--0-----1-------|----1p-0--------0-|-------0--------1-|-------1--------0-|B  
3|-------0-----0----|-------------0----|----0-------------|-------------0----|G  
4|-0----------------|-0----------------|-0----------------|-0----------------|d  
5|----------3-------|------------------|----------3-------|------------------|a  
6|------------------|----------0-------|------------------|----------3-------|e  
  
1|-3----------------|------------------|-3----------------|-3----------------|E  
2|----0--1--0-------|-0--------------3-|-------3--------3-|-------3--------3-|B  
3|------------------|-------------0----|-------------0----|-------------0----|G  
4|----0--2--0-----0-|-------0----------|----0-------------|----0-------------|d  
5|------------------|------------------|------------------|------------------|a  
6|-------------3----|----3-----3-------|----------3-------|----------3-------|e  
  
1|-3----------------|-3----------------|------------------|------------------|E  
2|-------3--------3-|-------3--------3-|-------0--------1-|-------1--------1-|B  
3|-------------0----|-------------0----|----0--------0----|----0--------0----|G  
4|----0-------------|----0-------------|------------------|-0----------------|d  
5|------------------|------------------|------------------|----------3-------|a  
6|----------3-------|----------3-------|-2--------0-------|------------------|e  
	     La importancia de verte morderte los labios de preocupación,  
1|-3----------------|-3----------------|------------------|------------------|E  
2|-------0--------3-|-------3--------3-|-------0--------1-|-------1--------1-|B  
3|----0--------2----|----2--------0----|----0--------0----|----0--------0----|G  
4|----------0-------|------------------|------------------|-0----------------|d  
5|------------------|------------------|------------------|----------3-------|a  
6|------------------|----------3-------|-2--------0-------|------------------|e  
	      es hoy tan nece saria  co mo verte siempre comoandarsiguiendote  
1|------------------|------------------|-3--------2-------|-0----------------|E  
2|-------1--------1-|-------1--------3-|-------3--------3-|------------------|B  
3|----0--------0----|----0--------2----|----2--------2----|----------------0-|G  
4|------------------|----------0-------|------------------|-------------2----|d  
5|-2--------0-------|-3----------------|------------------|----0--2--3-------|a  
6|------------------|------------------|------------------|------------------|e  
  con la cabeza en laimaginación;		     porque sabes y  si no lo  
1|------------------|-3--------------3-|------------------|------------------|E  
2|-1--------------3-|-------------3----|-------3--------3-|-------0--------1-|B  
3|-------------2----|----------0-------|----0--------0----|----0--------0----|G  
4|----------0-------|----2--4----------|-4--------2-------|-0----------------|d  
5|----2--3----------|------------------|------------------|----------3-------|a  
6|------------------|------------------|------------------|------------------|e  
   sabes no importayo sé lo quesientoyo sé lo quecortan despuésunos labios:  
1|-3----------------|-0--------3-------|-0----------------|------------------|E  
2|-------1--------3-|-------3--------3-|-------3--------3-|-------0--------1-|B  
3|----0--------2----|----2--------0----|----2--------0----|----0--------0----|G  
4|----------0-------|------------------|-0----------------|-0----------------|d  
5|------------------|------------------|------------------|----------3-------|a  
6|------------------|----------3-------|----------3-------|------------------|e  
	       esos labios  rojos y  afilados,      yesos puños quetiemblande  
1|----3-------------|------------------|------------------|-------0----------|E  
2|-------1--------1-|-------1--------0-|-------0--------1-|----------------3-|B  
3|-------------0----|----0--------0----|----0--------0----|----0--------2----|G  
4|-2--------0-------|-1--------2-------|-0----------------|----------0-------|d  
5|------------------|------------------|----------3-------|-4----------------|a  
6|------------------|------------------|------------------|------------------|e  
  rabiacuandoestascontenta quetiemblandemuertesialguienseteacerca raatí.  
1|-3--------2-------|-0h-2-------------|-3--------2-------|-0h-2-------------|E  
2|-------3--------3-|-------3--------3-|-------3--------3-|-------3--------3-|B  
3|----2--------2----|-------------2----|----2--------2----|-------------2----|G  
4|------------------|----------0-------|------------------|----------0-------|d  
5|------------------|------------------|------------------|------------------|a  
6|------------------|------------------|------------------|------------------|e  
  
1|-3--------3-------|-3----------------|-3--------3-------|------------------|E  
2|-------3--------3-|-------3--------3-|-------3----------|-3--------------3-|B  
3|----2--------2----|----2--------2----|----2-----------2-|----2--------0----|G  
4|------------------|----------0-------|-------------0----|-------0----------|d  
5|------------------|------------------|------------------|------------------|a  
6|------------------|------------------|------------------|----------3-------|e  
						     Hoy procura queaquéllaven  
1|------------------|------------------|------------------|-3----------------|E  
2|-------0--------1-|-------1--------1-|-------1--------1-|-------1--------3-|B  
3|----0--------0----|----0--------0----|----0--------0----|----0--------2----|G  
4|------------------|-0----------------|------------------|----------0-------|d  
5|------------------|----------3-------|-2--------0-------|------------------|a  
6|-2--------0-------|------------------|------------------|------------------|e  
   tana que mira a la calleentucuartose tenga cerra da,		       porque  
1|-3--------3-------|------------------|------------------|-3----------------|E  
2|-------3--------3-|-------0--------1-|-------1--------1-|-------1--------1-|B  
3|----2--------0----|----0--------0----|----0--------0----|----0--------0----|G  
4|------------------|------------------|-0----------------|------------------|d  
5|------------------|------------------|----------3-------|-2--------0-------|a  
6|----------3-------|-2--------0-------|------------------|------------------|e  
  no vaya a seryoel vientodela nocheyte mida y recorra la pielcon mialientoyhas  
1|-3----------------|------------------|-0--------------0-|-0----------------|E  
2|----------------1-|-------1--------0-|-------0--------0-|-0-----0--------1-|B  
3|-------------0----|----0--------0----|----0--------0----|-------0-----0----|G  
4|----------0-------|-1--------2-------|----------0-------|----0-------------|d  
5|----2--3----------|------------------|------------------|----------3-------|a  
6|------------------|------------------|------------------|------------------|e  
  ta te acariciey te  deje dormir,		     y me metaen tu pechoy me  
1|----3-------------|------------------|-0--------------0-|-0----------------|E  
2|-------1--------1-|-------1--------0-|-------0--------0-|-0-----0--------1-|B  
3|-------------0----|----0--------0----|----0--------0----|-------0-----0----|G  
4|-2--------0-------|-1--------2-------|----------0-------|----0-------------|d  
5|------------------|------------------|------------------|----------3-------|a  
6|------------------|------------------|------------------|------------------|e  
 vuelva asalir y res  pires de mí;		     o me vuelvaunaestrellaytes  
1|----3-------------|------------------|------------------|------------------|E  
2|-------1--------1-|-------0--------0-|-------0--------0-|-------0--------1-|B  
3|-------------2----|----0--------0----|----2--------0----|----0--------0----|G  
4|-2--------0-------|------------------|------------------|-0----------------|d  
5|------------------|----------2-------|-0----------------|----------3-------|a  
6|------------------|-3----------------|----------3-------|------------------|e  
 trecheenmis rayosy   to do pornohacerme un pocodecaso ten  miedo de ma yo  
1|-3----------------|-0--------3-------|-0----------------|----1p-0----------|E  
2|-------1--------3-|-------3--------3-|-------3--------3-|----------------1-|B  
3|----0--------2----|----2--------0----|----2--------0----|-------------0----|G  
4|----------0-------|------------------|-0----------------|-0----------------|d  
5|------------------|------------------|------------------|----------3-------|a  
6|------------------|----------3-------|----------3-------|------------------|e  
	       y ten miedo de mí,		    porque no vaya aserquecan  
1|----3-------------|------------------|------------------|------------------|E  
2|-------1--------1-|-------0--------0-|-------0--------0-|-------0--------1-|B  
3|-------------2----|----0--------0----|----2--------0----|----0--------0----|G  
4|-2--------0-------|------------------|------------------|-0----------------|d  
5|------------------|----------2-------|-0----------------|----------3-------|a  
6|------------------|-3----------------|----------3-------|------------------|e  
   sado de verte me  meta entusbrazospa ra  pose er tey tearranquelasropas  
1|-3----------------|-3----------------|-3----------------|----1p-0----------|E  
2|-------1--------3-|-------3--------3-|-------0--------0-|----------------1-|B  
3|----0--------2----|----2--------0----|----0--------0----|-------------0----|G  
4|----------0-------|------------------|------------------|-0----------------|d  
5|------------------|------------------|------------------|----------3-------|a  
6|------------------|----------3-------|----------3-------|------------------|e  
	       y te   bese los pies		     y te   llame mi diosayno  
1|----3-------------|------------------|------------------|-0----------------|E  
2|-------1--------1-|-------1--------0-|-------0--------3-|-------1--------1-|B  
3|-------------0----|----0--------0----|----0--------0----|----0--------0----|G  
4|-2--------0-------|-1--------2-------|-0----------------|----------2-------|d  
5|------------------|------------------|----------3-------|------------------|a  
6|------------------|------------------|------------------|------------------|e  
   pueda mirarte de frenteyte  diga llo rando después:		       por fa  
1|-3----------------|-3--------------3-|-3----------------|-3----------------|E  
2|-------1--------0-|-------0--------3-|-3-----3--------0-|-------0--------3-|B  
3|----0--------0----|----0--------0----|-------0-----0----|----0--------2----|G  
4|------------------|------------------|------------------|----------0-------|d  
5|------------------|----------3-------|----3-------------|------------------|a  
6|----------3-------|------------------|----------3-------|------------------|e  
  vor tenme miedo.		¡Tiembla mucho de miedo mu jer!  
1|-3--------0-------|-2--------3-------|----------3-------|----------3-------|E  
2|-------3-----3----|----3-----3-----3-|-------0--3-----3-|-------3--3-----3-|B  
3|----2-----------2-|-------2-----0----|----0--------0----|----0--------0----|G  
4|------------------|------------------|------------------|-0----------------|d  
5|------------------|------------------|------------------|----------3-------|a  
6|------------------|----------3-------|-2--------0-------|------------------|e  
	      Porque no puede ser.  
1|-------------3----|-------3----------|E  
2|----1p-0-----0h-1-|-----0------------|B  
3|------------------|---0--------------|G  
4|-0-----------0h-2-|-0----------------|d  
5|------------------|------------------|a  
6|----------3-------|------------------|e  

	  

Solicitar el vídeo de "Hoy ten miedo de mi" - Descargar Hoy ten miedo de mi mp3

No existe una video leccione para esta canción

solicitar
140

Envie sus comentários.

0 comentários

 
LosAcordes
Buscar
auto avanzar rasgueos aumentar disminuir cambiar color esconder acordes gráficos
losacordes exhibir acordes losacordes youTube video losacordes ocultar tabs losacordes cambiar notación losacordes ir hacia arriba losacordes