A B C D E F G H I J K L M N O P Q R S T U V X Y Z 0-9
Enrique Bunbury

Início > Enrique Bu... > acordes

Enrique Bunbury

El Jinete

Dificultad:PrincipiantePrincipiante

por tercmoraes

tuner corregir añadir para songbook version para impresion version de texto version rtf e-mail
acordestablaturabajobateríaarmónicaflautacavacopiano Guitar Pro
acordes

El Jinete

(José Alfredo Jiménez)

	  Hola, espero k les sirva esta tablaturaa de esta gran rola.. 
y aprovechar para dedikarselaa a mya, k es tan especial y kiero tanto 
tkm chamakitaa infernal ehh, metetelo en esaaa cabezita =) jeje 
te adoro, no hagas mas travesuras te lo ruego, suerte... 

Intro del tecladoo 

|----19-------|----7-----|----------| 
|-------19-20-|------7-8-|----0-----| 
|-------------|----------|--------0-| 
|-------------|----------|------4---| 
|-------------|----------|----------| 
|-0-----------|-0--------|-0--------| 


Em 
Por la lejana montaña 
                 Am 
Va cabalgando un jinete 
                 Em 
Vaga solito en el mundo 
     B7          Em 
Y va deseando la muerte 

Em 
Lleva en su pecho una herida 
                    Am 
Va con su alma destrozada 
                   Em 
Quisiera perder la vida 
      B7 
Y reunirse con su amada 


CORO 

La keria mas.. Y la perdio..        Por eso lleva.. Por eso... ayyy ayy.............            Buska la muerte.. 
|----------|---0-------------------|-------------|--------------|------2-----2-----2-----2-----|-----------| 
|---1------|---------1----------0--|-----1-------|--------0-----|-0------0-----0-----0-----0---|-0---------| 
|-----2----|-----------2------0----|-------2-----|------2---2---|---2------2-----2-----2-----2-|---2-------| 
|----------|----------------2------|-------------|----1-------1-|-----1------------------------|-----1-----| 
|--------0-|-------0-----0---------|---0-----0---|--2-----------|------------------------------|--------2--| 
|-0--------|-0---0---------0-------|-0---------0-|--------------|------------------------------|--------0--| 

Am                     Em 
La queria mas que a su vida 
Am               Em 
Y la perdio para siempre 
    Am            Em 
Por eso lleva una herida 
    B7             Em 
Por eso...busca la muerte. 

Em 
Por eso se pierde en la noche 
                     Am 
Y aunque la noche es muy bella 
                   Em 
El va pidiéndole a dios 
            B7 
Que se lo lleve con ella 


CORO 

La keria mas.. Y la perdio..        Por eso lleva.. Por eso... ayyy ayy.............            Buska la muerte.. 
|----------|---0-------------------|-------------|--------------|------2-----2-----2-----2-----|-----------| 
|---1------|---------1----------0--|-----1-------|--------0-----|-0------0-----0-----0-----0---|-0---------| 
|-----2----|-----------2------0----|-------2-----|------2---2---|---2------2-----2-----2-----2-|---2-------| 
|----------|----------------2------|-------------|----1-------1-|-----1------------------------|-----1-----| 
|--------0-|-------0-----0---------|---0-----0---|--2-----------|------------------------------|--------2--| 
|-0--------|-0---0---------0-------|-0---------0-|--------------|------------------------------|--------0--| 

Am                     Em 
La queria mas que a su vida 
Am               Em 
Y la perdio para siempre 
    Am            Em 
Por eso lleva una herida 
    B7             Em 
Por eso...busca la muerte. 


Intermediooo... 
(Con distorcion) 
|---------------------------------------------| 
|-----------------------------12--------------| 
|---------------------------------12----------| 
|-2----9----2----2----2----2--14------7----2--| 
|-2----7----2----2----2----2----------9----2--| 
|-0----0----0----0----0----0---------------0--| 


En este momentooo se kedan calladoss solo keda el teclado con un wah k es esto.. 

En su guitarra cantando 
Se pasa noches enteras 
Hombre y guitarra  llorando 
A la luz de las estrellas 

  C/Wah                     S/Wah       C/Wah 
|-0---0-7--7-0---(5)/7-5-5-|-7-3-|-5-0-|-5/7--5-0---2-|-2-0---0--| 
|--------------------------|-8-5-|-5-1-|--------------|-----4----| 
|--------------------------|-9-4-|-5-2-|--------------|----------| 
|--------------------------|-----|-----|--------------|----------| 
|--------------------------|-----|-----|--------------|----------| 
|--------------------------|-----|-----|--------------|----------| 


Despues se pierde en la noche 
Y aunque la noche es muy bella 
 Am 
El va pidiendole a dios 
            B7 
Que se lo lleve con ella 


C/Wah                     S/Wah       C/Wah 
|-0---0-7--7-0---(5)/7-5-5-|-7-3-|-5-0-|-5/7--5-0---2-|-2-0---0--| 
|--------------------------|-8-5-|-5-1-|--------------|-----4----| 
|--------------------------|-9-4-|-5-2-|--------------|----------| 
|--------------------------|-----|-----|--------------|----------| 
|--------------------------|-----|-----|--------------|----------| 
|--------------------------|-----|-----|--------------|----------| 


Coro 

La keria mas.. Y la perdio..        Por eso lleva.. Por eso... ayyy ayy.............            Buska la muerte.. 
|----------|---0-------------------|-------------|--------------|------2-----2-----2-----2-----|-----------| 
|---1------|---------1----------0--|-----1-------|--------0-----|-0------0-----0-----0-----0---|-0---------| 
|-----2----|-----------2------0----|-------2-----|------2---2---|---2------2-----2-----2-----2-|---2-------| 
|----------|----------------2------|-------------|----1-------1-|-----1------------------------|-----1-----| 
|--------0-|-------0-----0---------|---0-----0---|--2-----------|------------------------------|--------2--| 
|-0--------|-0---0---------0-------|-0---------0-|--------------|------------------------------|--------0--| 

Am                     Em 
La queria mas que a su vida 
Am               Em 
Y la perdio para siempre 
    Am            Em 
Por eso lleva una herida 
    B7             Em             C/Distor 
Por eso...busca la muerte.      5|-2---2---2--| 
                                6|-0---0---0--| 




..........SOLO............ 

|-----------------|-----|-------------|------------------|-------------| 
|-----------------|-----|-------------|----------5-4-5-7-|-8-7---5-4-5-| 
|-----------------|-----|---------4-5-|-4-5--4-5---------|-------------| 
|-\5--5-5-4---4-5-|-4-5-|-5-5-4-5-----|------------------|-------------| 
|-----------5-----|-----|-------------|------------------|-------------| 
|-----------------|-----|-------------|------------------|-------------| 


|-----------------|-----|-------------|----------------------------5-3-2-0--| 
|-----------------|-----|-------------|----------5-4--4-5---4-5-4-----------| 
|-----------------|-----|---------4-5-|-4-5--4-5----------------------------| 
|-\5--5-5-4---4-5-|-4-5-|-5-5-4-5-----|-------------------------------------| 
|-----------5-----|-----|-------------|-------------------------------------| 
|-----------------|-----|-------------|-------------------------------------| 

Teclado.. 

|----19-------|----7-----|----------| 
|-------19-20-|------7-8-|----0-----| 
|-------------|----------|--------0-| 
|-------------|----------|------4---| 
|-------------|----------|----------|..> esta parte traten de adherirla al solo seria el teclado 
|-0-----------|-0--------|-0--------| 


Asi akaba el tecladoo ia para dar final a la rola y ya acabado el solo 

|-17-19----------| 
|-------19-20-19-| 
|----------------| X7 
|----------------| 
|----------------| 
|----------------| 

 Espero k les halla servido 
kisiera dedirkasela annel melissaa 
k lo de esta rola pasariaa si dejara de frecuentarla... 

te adoro mi niñaa cuidese 
no haga travesuras porfavor 
CUIDESE k la kiero enterita 
y sobre todo sea feliz.. 

Ojala todo se arreglee tu hogar.. Bye atte Reynaldo 

ERES LO MEJOIR DE MI VIDA =) GRACIAS POR EXISTIR
	  

Solicitar el vídeo de "El Jinete" - Descargar El Jinete mp3

No existe una video leccione para esta canción

solicitar
Aumentar uno tonoAumentar uno tono
Aumentar uno semi-tonoAumentar uno semi-tono
Disminuir uno semi-tonoDisminuir uno semi-tono
Disminuir uno tonoDisminuir uno semi-tono
140

Envie sus comentários.

0 comentários

 
LosAcordes
Buscar
auto avanzar rasgueos aumentar disminuir cambiar color esconder acordes gráficos
losacordes exhibir acordes losacordes youTube video losacordes ocultar tabs losacordes cambiar notación losacordes ir hacia arriba losacordes