A B C D E F G H I J K L M N O P Q R S T U V X Y Z 0-9
Enanitos Verdes

Início > Enanitos V... > acordes

Enanitos Verdes

Tu Carcel

Dificultad:PrincipiantePrincipiante

por Washburn18

tuner corregir añadir para songbook version para impresion version de texto version rtf e-mail
acordestablaturabaixobateríaarmónicaflautacavacopiano Guitar Pro
acordes

Tu Carcel

Áño: 2004 - Álbum: En Vivo

Tono:  D Más
Tu Carcel Tono G#G#
Tu Carcel Tono AA
Tu Carcel Tono A#A#
Tu Carcel Tono BB
Tu Carcel Tono CC(Disminuir uno tono)
Tu Carcel Tono C#C#(Disminuir uno semi-tono)
Tu Carcel Tono DD(tono original)
Tu Carcel Tono D#D#(Aumentar uno semi-tono)
Tu Carcel Tono EE(Aumentar uno tono)
Tu Carcel Tono FF
Tu Carcel Tono F#F#
Tu Carcel Tono GG
	  Intro: 
 
E-------------------------------------------------- 
B-------------------------------------------------- 
G--9h11--11/9-7----7-7-9-9h11-11-7-9-9-7-6--------- 
D-------------------------------------------------- 
A-------------------------------------------------- 
E-------------------------------------------------- 
 
 
E------------------------------------------------- 
B------------------------------------------------- 
G--6-6-7-9-9-6-7--7-6-4---4-4-4-7-6-4-6/7/9-9----- 
D------------------------------------------------- 
A------------------------------------------------- 
E------------------------------------------------- 
 
 
     D                             A 
E------------------------------------------------- 
B------------------------------------------------- 
G--9h11--11/9-7----7-7-9-9h11-11-7-9-9-7-6-------- 
D------------------------------------------------- 
A------------------------------------------------- 
E------------------------------------------------- 
 
              Bm          G                  A 
E------------------------------------------------- 
B------------------------------------------------- 
G--6-6-7-9-9-6-7--7-6-4---4-4-4-7-6-4-6/7/9-9----- 
D------------------------------------------------- 
A------------------------------------------------- 
E------------------------------------------------- 
 
 
D 
Te vas amor si así lo quieres 
      A 
que puedo yo hacer, tu vanidad 
        Bm 
no te deja entender 
G                      A 
  que en la pobreza se sabe querer. 
 
D 
Quiero llorar y me destroza 
     A 
que pienses así, y mas que 
           Bm 
ahora me quede sin ti 
G                    A             A7 
  me duele lo que tu vas a sufrir. 
 
D 
Pero recuerda, nadie es perfecto 
  A 
y tu lo veras mas de mil cosas 
    Bm 
mejores tendrás 
G                    A          A7 
  pero un cariño sincero jamás. 
 
D 
Vete olvidando,de esto que hoy dejas 
   A 
y que cambiaras, por la aventura que 
   Bm 
tu ya veras. 
G                 A 
  Será tu cárcel y nunca saldrás. 
 
     D                             A 
E------------------------------------------------- 
B------------------------------------------------- 
G--9h11--11/9-7----7-7-9-9h11-11-7-9-9-7-6-------- 
D------------------------------------------------- 
A------------------------------------------------- 
E------------------------------------------------- 
 
              Bm          G                  A 
E----------------------------------------------------------- 
B----------------------------------------------------------- 
G--6-6-7-9-9-6-7--7-6-4---4-4-4-7-6-4-6/7/9-9--9h119h119h11- 
D----------------------------------------------------------- 
A----------------------------------------------------------- 
E----------------------------------------------------------- 
 
D 
Quiero llorar y me destroza 
     A 
que pienses así, y mas que 
           Bm 
ahora me quede sin ti 
G                    A             A7 
  me duele lo que tu vas a sufrir. 
 
D 
Pero recuerda, nadie es perfecto 
  A 
y tu lo veras más de mil cosas 
    Bm 
mejores tendrás 
G                    A          A7      
  pero un cariño sincero jamás. 
 
D 
Vete olvidando,de esto que hoy dejas 
   A 
y que cambiarás, por la aventura que 
   Bm 
tu ya veras. 
G                 A                (Riff 1) 
  Será tu cárcel y nunca saldrás. 
 
 
D                                   
Pero recuerda, nadie es perfecto 
  A       (Riff 2)  
y tu lo veras mas de mil cosas 
    Bm          (Riff 3) 
mejores tendrás 
G                    A          A7   (Riff 1) 
  pero un cariño sincero jamás. 
 
D 
Vete olvidando,de esto que hoy dejas 
   A 
y que cambiaras, por la aventura que 
   Bm 
tu ya veras. 
G                 A   A7         D 
  Será tu cárcel y nuuunca saldrás. 
 
SOLO 
1a parte 
 
E-------------------------------------------------- 
B--17/19-19-17--------------17-19-19---17-17------- 
G--------------19-----19-19---------19------19-18-- 
--------------------------------------------------- 
D-------------------------------------------------- 
A-------------------------------------------------- 
E-------------------------------------------------- 
 
E------------------------------------------- 
B----------17-17---------------------------- 
G--18-18-19-----18-19--19-18-16------------- 
D------------------------------------------- 
A------------------------------------------- 
E------------------------------------------- 
 
E---------------------------------------------------- 
B---------------------------17--17--17h19//-19-17/19b 
G16-16-16-19-18-16-18-19--18--18--------------------- 
D---------------------------------------------------- 
A---------------------------------------------------- 
E---------------------------------------------------- 
 
2a parte 
E-------------------------------------------------- 
B-------------------------------------------------- 
G--9h11--11/9-7----7-7-9-9h11-11-7-9-9-7-6--------- 
D-------------------------------------------------- 
A-------------------------------------------------- 
E-------------------------------------------------- 
 
 
E--------------------------------------------------------------- 
B--------------------------------------------------------------- 
G--6-6-7-9-9-6-7--7-6-4---4-4-4-7-6-4-6/7/9-9---9/11-9-11-9-7/-- 
D--------------------------------------------------------------- 
A--------------------------------------------------------------- 
E--------------------------------------------------------------- 
 
E---------------- 
B--7-8-7--------- 
G-7-----7-9-7---- 
D--------7------- 
A---------------- 
E---------------- 
  
  
------------------------------------------------------------------- 
  
Riff 1: 
  
E----------------------------- 
B----------------------------- 
G--9h11p9-----9s11------------ 
D---------12-------12s14s12~-- 
A----------------------------- 
E----------------------------- 
  
Riff 2:  
  
E---10--10s12---12--12s10-- 
B-------------------------- 
G-------------------------- 
D-------------------------- 
A-------------------------- 
E-------------------------- 
  
Riff 3: 
  
E-------------- 
B-------------- 
G-------------- 
D----12s14s12-- 
A-------------- 
E-------------- 
  
---------------------------------------------------------------------------- 
 
GOGOGOGOGOGOGO FRONTI 21!!!!! 
 

	  

Solicitar el vídeo de "Tu Carcel" - Descargar Tu Carcel mp3

No existe una video leccione para esta canción

solicitar
Aumentar uno tonoAumentar uno tono
Aumentar uno semi-tonoAumentar uno semi-tono
Disminuir uno semi-tonoDisminuir uno semi-tono
Disminuir uno tonoDisminuir uno semi-tono
140

Envie sus comentários.

0 comentários

 
LosAcordes
Buscar
auto avanzar rasgueos aumentar disminuir cambiar color esconder acordes gráficos
losacordes exhibir acordes losacordes youTube video losacordes ocultar tabs losacordes cambiar notación losacordes ir hacia arriba losacordes