Emmylou Harris

Início > Emmylou Ha... > acordes

Oh Cumberland Tablatura

Emmylou Harris

Dificultad:Ningún gradoNingún grado

por alyslima

tuner correct add songbook print version text version salvar en e-mail
acordesukuleletablaturabajobateríaarmónicaflautacavacopiano Guitar Pro
acordes

Oh Cumberland

	  Intro 
    D                 G/B           D                 G/B 
E-----0----2---0----------------|-----0----2---0----------------| 
B------3----3---3----------3----|------3----3---3----------3----| 
G----2--2----2---2--------0-0---|----2--2----2---2--------0-0---| 
D---0-------------0------0---0--|---0-------------0------0---0--| 
A---------------------0h2-------|---------------------0h2-------| 
E-------------------------------|-------------------------------| 
                                                           Fog on theâ?¦ 
    G/B            D              G/B            D 
E--------------------0-----|-----------------------0-----| 
B--------3------------3----|-----------3------------3----| 
G-------0-0---------2--2---|----------0-0---------2--2---| 
D------0---0-------0----0--|---------0---0-------0----0--| 
A---0h2--------------------|------0h2--------------------| 
E--------------------------|-----------------------------| 
1.      Fog on the asphalt             L.A.      freeway 
2.      Lazy old river             not a lick of ambition 

    G/B            D             A             D 
E--------------------0-----|----------------------0-----| 
B--------3------------3----|-------2-------------3-3----| 
G-------0-0---------2--2---|--------2-----------2---2---| 
D------0---0-------0----0--|------2--2---------0-----0--| 
A---0h2--------------------|-----0----------------------| 
E--------------------------|----------------------------| 
1.       Santa Anna windstorm    come blow me away 
2.  You get thru Kentucky        youâ??re all on home 

    G/B                      D           G/B          D 
E------------------------------0-----|--------------------0-----| 
B--------3----------------------3----|--------3------------3----| 
G-------0-0-------------------2--2---|-------0-0---------2--2---| 
D------0---0-----------------0----0--|------0---0-------0----0--| 
A---0h2------------------------------|---0h2--------------------| 
E------------------------------------|--------------------------| 
1.       Cause this rearview mirror     could use some adjustment 
2.       If you were a river, you wouldnâ??t go nowhere 

    G/B            D             A             D 
E--------------------0-----|----------------------0-0h2----| 
B--------3------------3----|-------2-------------3---------| 
G-------0-0---------2--2---|--------2-----------2----------| 
D------0---0-------0----0--|------2--2---------0----0------| 
A---0h2--------------------|-----0-------------------------| 
E--------------------------|-------------------------------| 
1.     Some other reflection       some other place 
2.     And I wouldnâ??t be lost      out here all alone 

Chorus 

    D       G/B          D 
E-----0----------------|---0---------| 
B------3----------3----|----3--------| 
G----2--2--------0-0---|--2--2-------| 
D---0-----------0---0--|-0-----------| 
A------------0h2-------|-------------| 
E----------------------|-------------| 
 Oh Cumberland,   I am a faithful son 

    G/B            D             A            A Asus4  A 
E--------------------0-----|------------------------------------| 
B--------3------------3----|--------2-------2---2--3--2---------| 
G-------0-0---------2--2---|----------2---2----2-2--2--2--------| 
D------0---0-------0----0--|-------2----2-----2---2--2â??2--------| 
A---0h2--------------------|-----0-----------0------------------| 
E--------------------------|------------------------------------| 
         No matter where I run      I hear you callinâ?? me 


    D                 G/B 
E-----0-------------------------| 
B------3-------------------3----| 
G----2--2-----------------0-0---| 
D---0--------------------0---0--| 
A---------------------0h2-------| 
E-------------------------------| 
    The Mississippi is wide and long 

    D                G/B           D 
E-----0-----------------------|------0---------------------------| 
B------3-----------------3----|-------3-----------------3--------| 
G----2--2---------------0-0---|-----2--2-----------------0-------| 
D---0------------------0---0--|----0-------------------0--0------| 
A-------------------0h2-------|----------------------------------| 
E-----------------------------|-----------------------3----------| 
   From St. Paul to New Orleans.   My heartâ??s restinâ?? on the banks 

    A            D 
E-------------------0-0h2---| 
B------2-----------3--------| 
G-----2-2---------2---------| 
D----2---2-------0----0-----| 
A---0-----------------------| 
E---------------------------| 
	  

No existe una video leccione para esta canción

request
Aumentar uno tonoAumentar uno tono
Aumentar uno semi-tonoAumentar uno semi-tono
Disminuir uno semi-tonoDisminuir uno semi-tono
Disminuir uno tonoDisminuir uno semi-tono
LosAcordes
Buscar
auto avanzar rasgueos aumentar disminuir cambiar color esconder acordes gráficos
losacordes exhibir acordes losacordes youTube video losacordes ocultar tabs losacordes ir hacia arriba losacordes