Eduardo Nascimento

Início > Eduardo Na... > acordes

Top Gear Tablatura

Eduardo Nascimento

Dificultad:ExpertoExperto

por bombaXXX

tuner correct add songbook print version text version salvar en e-mail
acordesukuleletablaturabajobateríaarmónicaflautacavacopiano Guitar Pro
acordes

Top Gear

	  E|----------------8-11-15-11-8--------------------------------11-15--| 
B|--------------8--------------8---------------------------11--------| 
G|------------8------------------8----------------------12-----------| 
D|---------10----------------------10----------------13--------------| 
A|------10----------------------------10----------13-----------------| 
E|-8-11----------------------------------11-11-15--------------------| 

E|-18-15-11----------------------------------10-13-18-13-10-----------| 
B|----------11----------------------------11----------------11--------| 
G|-------------12----------------------10----------------------10-----| 
D|----------------13----------------12----------------------------12--| 
A|-------------------13----------13-----------------------------------| 
E|----------------------15-10-13--------------------------------------| 

E|----------------------8-11-15-11-8----------------------------------| 
B|--------------------8--------------8--------------------------------| 
G|------------------8------------------8------------------------------| 
D|---------------10----------------------10------(repeat all)---------| 
A|-13---------10----------------------------10------------------------| 
E|----13-8-11----------------------------------11---------------------| 

(junto Com Os Arpejos os t saum marcações de tapping) 
   T       T       T       T       T    T 
E|-15p11p8-15p11p8-15p11p8-15p11p8-16p8-15p11-------------------------| 
B|--------------------------------------------------------------------| 
G|--------------------------------------------------------------------| 
D|--------------------------------------------------------------------| 
A|--------------------------------------------------------------------| 
E|--------------------------------------------------------------------| 
   T       T       T       T       T    T 
E|-15p11p6-15p11p6-15p11p6-15p11p6-16p6-15p11-------------------------| 
B|--------------------------------------------------------------------| 
G|--------------------------------------------------------------------| 
D|--------------------------------------------------------------------| 
A|--------------------------------------------------------------------| 
E|--------------------------------------------------------------------| 
   T       T       T       T       T    T 
E|-13p10p6-13p10p6-13p10p6-13p10p6-15p6-13p10-------------------------| 
B|--------------------------------------------------------------------| 
G|--------------------------------------------------------------------| 
D|--------------------------------------------------------------------| 
A|--------------------------------------------------------------------| 
E|--------------------------------------------------------------------| 
   T       T       T       T       T    T 
E|-15p11p8-15p11p8-15p11p8-15p11p8-16p8-15p11-------------------------| 
B|--------------------------------------------------------------------| 
G|------------------------------------------(Esse tap deve ser limpo)-| 
D|--------------------------------------------------------------------| 
A|--------------------------------------------------------------------| 
E|--------------------------------------------------------------------| 

(melodia - Refrão) 

                 A 
E|-3--------------------------------------------------3-4--3-----3----| 
B|----4---------1----1-3-4-4-3-1----4---4-------6-3-6--------6-4---4--| 
G|-------5--0-*----0-------------3----3---0-3-------------------------| 
D|------------*-------------------------------------------------------| 
A|--------------------------------------------------------------------| 
E|--------------------------------------------------------------------| 

E|-----------------------------------------4-3---3--------------------| 
B|-3-4---------4-3-1-3-------6--4-3-4-6--------6---4--3-3-3-3-4-6-4-3-| 
G|-----5*---1----------1-3--------------5-----------------------------| 
D|------*-------------------------------------------------------------| 
A|--------------------------------------------------------------------| 
E|--------------------------------------------------------------------| 

E|--------------------------------------------------------------------| 
B|----------------------------4------4------4-------------------------| 
G|-3--(go back to A)-----1------3------1------------------------------| 
D|--------------------------------------------------------------------| 
A|--------------------------------------------------------------------| 
E|--------------------------------------------------------------------| 
	  

No existe una video leccione para esta canción

request
Aumentar uno tonoAumentar uno tono
Aumentar uno semi-tonoAumentar uno semi-tono
Disminuir uno semi-tonoDisminuir uno semi-tono
Disminuir uno tonoDisminuir uno semi-tono
LosAcordes
Buscar
auto avanzar rasgueos aumentar disminuir cambiar color esconder acordes gráficos
losacordes exhibir acordes losacordes youTube video losacordes ocultar tabs losacordes ir hacia arriba losacordes