Dragon Ball Z

Início > Dragon Bal... > acordes

Chala Head Chala Tablatura

Dragon Ball Z

Dificultad:ExpertoExperto

por terr_schmitz

tuner correct add songbook print version text version salvar en e-mail
acordesukuleletablaturabajobateríaarmónicaflautacavacopiano Guitar Pro
acordes

Chala Head Chala

	      	Intro 
E|-------------------------------------------------------------------------- 
a|---------12---------------------------12-------------------------------------- 
d|-12-11-----12-11-11-11-9-9-12-11----12-11-11-11-9-9---9-9-7-7-- 
g|--------------------------------------------------------------------- 
b|-------------------------------------------------------------------------- 
e|-------------------------------------------------------------------------- 

|---------------------------------------------------------------------- 
|------------12------------------------------------------------------- 
|-12-12-11----12~14-14-12-12-11-11---14-14-14-14--12-------- 
|---------------------------------------------------------------14---- 
|---------------------------------------------------------------------- 
|---------------------------------------------------------------------- 

|---------------------------------------------------------------------- 
|-------------------------12--14--15-17------------------------------ 
|-14-14-14-14-12-----------------------14-15-17-15-14-12-14---- 
|--------------------14------------------------------------------------ 
|---------------------------------------------------------------------- 
|---------------------------------------------------------------------- 

|---------------------------------------------------------------------- 
|------------12------------------------------------------------------- 
|-12-12-11----12~14-14-12-12-11-11---14-14-14-14--12-------- 
|---------------------------------------------------------------14---- 
|---------------------------------------------------------------------- 
|---------------------------------------------------------------------- 

|---------------------------------------------------------------------- 
|-------------------------12--14--15-17------------------------------ 
|-14-14-14-14-12-----------------------14-15-17-15-14-12-14---- 
|--------------------14------------------------------------------------ 
|---------------------------------------------------------------------- 
|---------------------------------------------------------------------- 

|----------------------------------------------------------------------- 
|----------------------------------------------------------------------- 
|-16----16-14-12-11-9~12-11-11--7-7-------7------7---7-7------7- 
|----16------------------------------------7-6----7-6----------7-6---- 
|----------------------------------------------------------------------- 
|----------------------------------------------------------------------- 

|------------------------------------------------------------------------ 
|------------------------------------------------------------------------ 
|------------------------------------------------------------------------ 
|-7-6-7-9-9~~~~--12--14--12-12--14------------14-------------14-- 
|-----------------------------------------12-13-12-----12-13-12------ 
|------------------------------------------------------------------------ 

|------------------------------------------------------------------------ 
|------------------------------------------------------------------------ 
|------------------------------------------------------------------------ 
|-14--12-12-----------------14-14-12-14---12--14--12-12--14------ 
|--------------13-13-12-12----------------------------------------12-- 
|------------------------------------------------------------------------ 

|------------------------------------------------------------------------- 
|------------------------------------------------------------------------- 
|------------------------------------------------------------------------- 
|--------14------------14-14-12-12--12-12-14-15-15-15---12-12-14- 
|-13-12----12-13-12---------------------------------------------------- 
|------------------------------------------------------------------------- 

|------------------------------------------------------------------------- 
|------------------------------------------------------------------------- 
|------------------------------------------------------------------------- 
|------------14-------------14-14-12--12-14-15~~~~~~-------------- 
|-12-13-12-----12-13-12----------------------------------------------- 
|------------------------------------------------------------------------- 
	  

there is a video lesson for this song
view full video
LosAcordes
Buscar
auto avanzar rasgueos aumentar disminuir cambiar color esconder acordes gráficos
losacordes exhibir acordes losacordes youTube video losacordes ocultar tabs losacordes ir hacia arriba losacordes