Diabo Na Cruz

Início > Diabo Na C... > acordes

Vida De Estrada Tablatura

Diabo Na Cruz

Dificultad:Ningún gradoNingún grado

por IronPower4Ever

tuner correct add songbook print version text version salvar en e-mail
acordesukuleletablaturabajobateríaarmónicaflautacavacopiano Guitar Pro
acordes

Vida De Estrada

	  

Intro: 
e|-5-----6----8----6---8----6-5-x-6-5-| 
B|-6-----6----6----5---6----5-5-8-5-5-| 
G|-5-----5----5----5---5----5-5-5-5-5-| 
D|------------------------------------| 
A|------------------------------------| 
E|------------------------------------| 
2x 

VERSOS: 
e|----------| 
B|----------| 
G|-10-10----| 
D|-10-10----| 
A|-8--8-----| 
E|----------| 

e|----------| 
B|----------| 
G|----------| 
D|-8-8------| 
A|-8-8------| 
E|-7-7------|3x 

e|----------| 
B|----------| 
G|----------| 
D|-8-8--3-3-| 
A|-8-8--3-3-| 
E|-7-7--1-1-| 

e|----------| 
B|----------| 
G|-10-10----| 
D|-10-10----| 
A|-8--8-----| 
E|----------| 

e|----------| 
B|----------| 
G|----------| 
D|-8-8------| 
A|-8-8------| 
E|-7-7------|2x 

e|----------| 
B|----------| 
G|----------| 
D|-8\-------| 
A|-8\-------| 
E|-7\-------| 

PRE-REFRAO: 
e|----------| 
B|----------| 
G|-9-----7--| 
D|-10----8--| 
A|-10----8--| 
E|-8-----6--|2x 

e|----------| 
B|----------| 
G|----------| 
D|-7--5-----| 
A|-7--5-----| 
E|-5--3-----| 

-Intro 1x- 

-Versos- 

-Pre-Refrão- 

REFRÃO: 
e|-5-----6---5---8-----8----| 
B|-6-----6---6---6-----6----| 
G|-5-----5---5---5-----5----| 
D|--------------------------| 
A|--------------------------| 
E|--------------------------|2x 

e|-5-| 
B|-6-| 
G|-5-| 
D|---| 
A|---| 
E|---|8x 

e|---| 
B|---| 
G|-9-| 
D|-9-| 
A|-7-| 
E|---|4x 

e|-------------------| 
B|-------------------| 
G|-9-----9-----------| 
D|-9-9-7-9-9-7--7--5-| 
A|-7-9-7-7-9-7--7--5-| 
E|---7-5---7-5--5--3-| 

e|------------| 
B|------------| 
G|------------| 
D|------------| 
A|-7-7-7-7--5-| 
E|-5-5-5-5--3-| 

-Intro- 

-Versos- 

-Pre-Refrão- 

-Refrão- 

-Parte sem Guitarras- 

-Pre-Refrão- 

-Refrão- 
	  

No existe una video leccione para esta canción

request
LosAcordes
Buscar
auto avanzar rasgueos aumentar disminuir cambiar color esconder acordes gráficos
losacordes exhibir acordes losacordes youTube video losacordes ocultar tabs losacordes ir hacia arriba losacordes