Demi Lovato

Início > Demi Lovat... > acordes

Catch Me Tablatura

Demi Lovato

Dificultad:PrincipiantePrincipiante

por TamyJudd

tuner correct add songbook print version text version salvar en e-mail
acordesukuleletablaturabajobateríaarmónicaflautacavacopiano Guitar Pro
acordes

Catch Me

Tono:  E Más
Catch Me Key BB
Catch Me Key CC
Catch Me Key C#C#
Catch Me Key DD(Disminuir uno tono)
Catch Me Key D#D#(Disminuir uno semi-tono)
Catch Me Key EE(tono original)
Catch Me Key FF(Aumentar uno semi-tono)
Catch Me Key F#F#(Aumentar uno tono)
Catch Me Key GG
Catch Me Key G#G#
Catch Me Key AA
Catch Me Key A#A#
	  1)Verse Part One 

e|--------------------------------------------| 
B|----9---9---9---9----9---9---9---9----------| 
G|----9---9---9---9----9---9---9---9----------| 
D|--7---7---7---7-----------------------------| 2x 
A|-------------------7---7---7---7------------| 
E|--------------------------------------------| 

2)Verse Part Two 

e|---------------------------------------------------------------| 
B|----5---5---5---5---4---4---4---4------------------------------| 
G|----6---6---6---6---4---4---4---4---6---6---6---6---8---8---8--| 
D|----6---6---6---6---4---4---4---4---7---7---7---7---9---9---9--| 
A|--4---4---4---4------------------------------------------------| 
E|------------------4---4---4---4---5---5---5---5---7---7---7---7| 

3)Chorus 

e|-------------------------------------|| 
B|-------------------------------------|| 
G|-----6---6---8---8-----9---9---8---8-|| 
D|-----7---7---9---9-----9---9---9---9-|| 
A|---------------------7---7-----------|| 
E|---5---5---7---7-------------7---7---|| 

e|-------------------------------------|| 
B|-------------------------------------|| 
G|-----6---6---8---8-----9---9---9---9-|| 
D|-----7---7---9---9-----9---9---9---9-|| 
A|---------------------7---7---7---7---|| 
E|---5---5---7---7---------------------|| 

e|-------------------------------------|| 
B|-------------------------------------|| 
G|-----6---6---8---8-----9---9---8---8-|| 
D|-----7---7---9---9-----9---9---9---9-|| 
A|---------------------7---7-----------|| 
E|---5---5---7---7-------------7---7---|| 

e|-------------------------------------|| 
B|-------------------------------------|| 
G|-----6---6---8---8-------------------|| 
D|-----7---7---9---9-----2---2---2---2-|| 
A|-----------------------2---2---2---2-|| 
E|---5---5---7---7-----0---0----0---0--|| 

4)Bridge 

e|---------------------------------------------------------------------| 
B|----5---5---5---5--------------------5---5---------------------------| 
G|----6---6---6---6---8---8------------6---6-----8---8---6---6---6--6--| 
D|----6---6---6---6---9---9---10--10---6---6-----9---9---7---7---7--7--| 
A|--4---4---4---4-------------9---9---4---4----------------------------| 
E|------------------7---7---8---8--------------7---7----5--5---5---5--- 

e|-------------------------------------------------| 
B|-------------------------------------------------| 
G|---2---2---2---2---4---4---4---4---5---5---5---5-| 
D|---4---4---4---4---6---6---6---4---7---7---7---7-| 
A|---4---4---4---4---6---6---6---6---7---7---7---7-| 
E|-2---2---2---2---4---4---4---4---5---5---5--5----| 

5)Chorus 

e|-------------------------------------------------------------| 
B|-------------------------------------------------------------| 
G|---6---------8---------9---8----------6-------8------9-------| 
D|---7---------9---------9---9----------7-------9------9-------| 
A|--------------------7--------------------------------7-------| 
E|-5--------7---------------7---------5-------7----------------| 

6) Chorus  

e|-5---7---4---2---| |--5--7--0---------| 
B|-5---7---5---4---| |--5--7--0---------| 
G|-6---8---6---4---| |--6--8--9---------| 
D|-7---9---6---4---| |--7--9--9---------| 
A|-7---9---4---2---|3x|--7--9--7---------| 
E|-5---7-----------| |--5--7------------| 

Before I fall too fast 
Kiss me quick 
But make it last 
So i can see how badly this will hurt me 
When you say good bye 

Keep it sweet 
Keep it slow 
Let the future pass 
And dont let go 
But tonight i could fall to soon into this beautiful moonlight 

But your so hypnotising 
You got me laughing while i sing 
You got me similing in my sleep 
And I can see this unravling 
And your love is where im falling 
But please dont catch me 

See this heart 
Wont settle down 
Like a child running scared from a clown 
l’m terrified of what you’ll do 
my stomach screams just when I look at you 

Run far away 
So I can breath 
Even though your far from suffocating me 
I can’t set my hopes to high 
Cuz every hello ends with a goodbye 

But your so hypnotising 
You’ve got me laughing while I sing 
You’ve got me smiling in my sleep 
And I can see this unravling 
Your love is where im falling 
But please dont catch me 

So now you see 
Why I’m scared 
I cant open up my heart without a care 
But here i go 
Its what i feel 
But for the first time in my life i know its real 

But you’re so hypnotising 
You’ve got me laughing while I sing 
You’ve get me smiling in my sleep 
And i can see this unravling 
And your love is where im falling 
So please don’t catch me 

And if this is love 
Please don’t break me 
I’m giving up 
So just catch me 

-TamyJudd.- 
	  

there is a video lesson for this song
view full video
LosAcordes
Buscar
auto avanzar rasgueos aumentar disminuir cambiar color esconder acordes gráficos
losacordes exhibir acordes losacordes youTube video losacordes ocultar tabs losacordes ir hacia arriba losacordes