Demi Lovato

Início > Demi Lovat... > acordes

B Tablatura

Demi Lovato

Dificultad:PrincipiantePrincipiante

por TamyJudd

tuner correct add songbook print version text version salvar en e-mail
acordesukuleletablaturabajobateríaarmónicaflautacavacopiano Guitar Pro
acordes

B

	  e|---------------------------|---------------------------| 
B|--------5-5---------5-5----|------5-5--------5-5-------| 
G|--------5-5---------5-5----|------5-5--------5-5-------| 
D|---------------------------|---------------------------| 
A|----5-5---------5-5--------|---------------------------| 
E|---------------------------|--5-5--------5-5-----------| 

Verse x3 

e|---------------------------|---------------------------| 
B|----5-5---------5-5--------|--5-5--------5-5-----------| 
G|----5-5---------5-5--------|--5-5--------5-5-----------| 
D|---------------------------|---------------------------| 
A|----5-5---------5-5--------|---------------------------| 
E|---------------------------|--5-5--------5-5-----------| 

Chorus 
Dm G C Am 

And I feel, I feel a deep connection, 
And I think, that we might be onto something, no 
And I know it’s something special, 
Seeing you here, is not coincidental, mhh 

Weel, I’ve been walkin’ (walkin’) behind enemy lines, 
And I’ve been fighting, fighting, from the other side, 
I’ve been saying (saying) “I won’t fall this time”, 
And now I’m walkin’ (walkin’) within enemy lines. 

Ohh, ohh 

{ Find more Lyrics on www.mp3lyrics.org/t55a } 
See, I was trying to be everything you weren’t expecting, 
All I ever wanted was to try and keep you guessing, 
Now I’m falling way too fast, 
I just want this love to last, forever (forever) 
Everytime I feel this way 
Oh, something’s changed for the better 

And I’ve been walkin’ (walkin’) behind enemy lines, 
And I’ve been fightin, fighting, from the other side, 
And I’ve been saying (saying) “I won’t fall this time”, 
And now I’m walkin’ (walkin’) within enemy lines 

Now I’m walkin’ (walkin’) behind enemy lines, 
And now I’m fightin’ (fighting) from the other side, 
And I’ve been saying (saying) “I won’t fall this time”, 
And now I’m walkin’ (walkin’) within enemy lines 

-TamyJudd.- 
	  

No existe una video leccione para esta canción

request
Aumentar uno tonoAumentar uno tono
Aumentar uno semi-tonoAumentar uno semi-tono
Disminuir uno semi-tonoDisminuir uno semi-tono
Disminuir uno tonoDisminuir uno semi-tono
LosAcordes
Buscar
auto avanzar rasgueos aumentar disminuir cambiar color esconder acordes gráficos
losacordes exhibir acordes losacordes youTube video losacordes ocultar tabs losacordes ir hacia arriba losacordes