A B C D E F G H I J K L M N O P Q R S T U V X Y Z 0-9
Deep Purple

Início > Deep Purpl... > acordes

Deep Purple

Smoke on the Water (solo)

Dificultad:ExpertoExperto

tuner corregir añadir para songbook version para impresion version de texto version rtf e-mail
acordestablaturabajobateríaarmónicaflautacavacopiano Guitar Pro
acordes

Smoke on the Water (solo)

	   
  G                                                  C 
e|---------------|---------------|------------------|-------------------------------------------| 
B|---------------|-13b-11----11b-|------------------|-------------------------------------------| 
G|-----------12~-|--------12-----|--------12-14-14b-|-14-15--14h15p14-12-14-12h14p12-10-12-10-8-| 
D|---12--14------|---------------|-12--14-----------|-------------------------------------------| 
A|---------------|---------------|------------------|-------------------------------------------| 
E|---------------|---------------|------------------|-------------------------------------------| 
 
  G 
e|-----------------|-------------------------|-------8---------------------------| 
B|-----------------|---8-11b-11b-11b--8--11--|-----8---11-10-8-------------------| 
G|-10b-10b-10b-10b-|-7-----------------------|-10b-------------11-10-8-10-8-7p5--| 
D|-----------------|-------------------------|-----------------------------------| 
A|-----------------|-------------------------|-----------------------------------| 
E|-----------------|-------------------------|-----------------------------------| 
 
  C                  G 
e|------------------|-----------------|------------|-------3----3--------------------| 
B|------------------|-----------------|------------|-----3---6b---6-5-3--------------| 
G|--------5---8-7-5-|-3b~--5--3--2--3-|-2--3--2--0-|--5b----------------6-5-3---5-3--| 
D|--8-7-5---8-------|-----------------|------------|--------------------------5------| 
A|------------------|-----------------|------------|---------------------------------| 
E|------------------|-----------------|------------|---------------------------------| 
 
  C                   G 
e|-------------------|-3-----3-6-8b-|-8b-8-6-8---|-----------8------8------8----8-10--| 
B|---------------3-6-|---3-6--------|----------8-|-11----------11-8---11-8---11-------| 
G|--5b-5b-5b-5b------|--------------|------------|-----10b----------------------------| 
D|-------------------|--------------|------------|------------------------------------| 
A|-------------------|--------------|------------|------------------------------------| 
E|-------------------|--------------|------------|------------------------------------| 
 
               C                                             F 
e|-11--13-13b-|-13-13b-13-13b-13-13b-|-13-13b-13-10--------|------------------| 
B|------------|----------------------|--------------13-13b-|-----6------------| 
G|------------|----------------------|---------------------|--5b---5b-3-5p3---| 
D|------------|----------------------|---------------------|----------------5-| 
A|------------|----------------------|---------------------|------------------| 
E|------------|----------------------|---------------------|------------------| 
 
                INTRO 
e|-----8-6-8-8b-|-8b-8b-8b-8b-8b-8b-8b-8b-|-8b--8b--8b--8b--8b----------| 
B|---8----------|-------------------------|----------------------6b-----| 
G|--------------|-------------------------|-----------------------------| 
D|--------------|-------------------------|-----------------------------| 
A|--------------|-------------------------|-----------------------------| 
E|--------------|-------------------------|-----------------------------|. 
 
 
 
_______________________________________________________ 
Contribuição: Alysson de Avila Costa(alycosta182@hotmail.com) 

	  

Solicitar el vídeo de "Smoke on the Water (solo)" - Descargar Smoke on the Water (solo) mp3

No existe una video leccione para esta canción

solicitar
Aumentar uno tonoAumentar uno tono
Aumentar uno semi-tonoAumentar uno semi-tono
Disminuir uno semi-tonoDisminuir uno semi-tono
Disminuir uno tonoDisminuir uno semi-tono
140

Envie sus comentários.

0 comentários

 
LosAcordes
Buscar
auto avanzar rasgueos aumentar disminuir cambiar color esconder acordes gráficos
losacordes exhibir acordes losacordes youTube video losacordes ocultar tabs losacordes cambiar notación losacordes ir hacia arriba losacordes