A B C D E F G H I J K L M N O P Q R S T U V X Y Z 0-9
Daniel

Início > Daniel > acordes

Daniel

Meu Reino Encantado (ver. 2)

Dificultad:PrincipiantePrincipiante

por andrevilaverde

tuner corregir añadir para songbook version para impresion version de texto version rtf e-mail
acordestablaturabajobateríaarmónicaflautacavacopiano Guitar Pro
acordes

Meu Reino Encantado (ver. 2)

	  E-----------2---7-5-5-5-5-------- 
B-----3---3---3------------------ 
G---2---2------------------------ 
D-4------------------------------ 
A-------------------------------- 
E-------------------------------- 


E-----------5---3-2-2-2-2-------- 
B---2-5-2-5---2------------------ 
G-2------------------------------ 
D-------------------------------- 
A-------------------------------- 
E-------------------------------- 


E-----------2---2-3-------------- 
B-----3---3---5------------------ 
G---2---2------------------------ 
D-4------------------------------ 
A-------------------------------- 
E-------------------------------- 


E-3-2---------------------------- 
B-----5-3-2---------------------- 


E-5-3-2-------------------------- 
B-------4-2---------------------- 


B-2------------------------------ 
G---4-2-------------------------- 
D-------5-4---------------------- 


G-2------------------------------ 
D---5-4-2------------------------ 
A---------5---------------------- 


E-------------------------------- 
B-------------------------------- 
G-------------------------------- 
D-------------------------------- 
A-------------------------------- 
E-2-3-5-3-0---------------------- 

	  

Solicitar el vídeo de "Meu Reino Encantado (ver. 2)" - Descargar Meu Reino Encantado (ver. 2) mp3

No existe una video leccione para esta canción

solicitar
140

Envie sus comentários.

0 comentários

 
LosAcordes
Buscar
auto avanzar rasgueos aumentar disminuir cambiar color esconder acordes gráficos
losacordes exhibir acordes losacordes youTube video losacordes ocultar tabs losacordes cambiar notación losacordes ir hacia arriba losacordes