A B C D E F G H I J K L M N O P Q R S T U V X Y Z 0-9
Christoffer Brandsborg

Início > Christoffe... > acordes

Christoffer Brandsborg

Chasing Rhythms

Dificultad:Ningún gradoNingún grado

por educastilho

tuner corregir añadir para songbook version para impresion version de texto version rtf e-mail
acordestablaturabajobateríaarmónicaflautacavacopiano Guitar Pro
acordes

Chasing Rhythms

	   
Capo 2

Intro:  

F|-------0------------0-----------0-----------0---(7)---------------| 
C|---------0------------0-----------0-----------0-(7)---------------| 
F|-----9-----p0-----7-----0-----5-----0-----7-----(7)---------------| 
C|---9------------7-----------5-----------7-------------------------| 
A|------------------------------------------------------------------| 
F|-9------------7-----------5-----------7---------------------------| 

F|-------0------------0-----------0-----4---p0--------0-----0-------| 
C|---------0------------0-----------0-----5----p0-4-----5p0---------| 
F|-----9-----p0-----7-----0-----5-----0-------------7---------------| 
C|---9------------7-----------5-------------------------------------| 
A|------------------------------------------------------------------| 
F|-9------------7-----------5---------------------------------------| 

F|-----0-(5)~-0-----------------------------------------------------| 
C|-----0-(5)~-0-----------------------------------------------------| 
F|-----0-(5)~-0-----------------------------------------------------| 
C|---5--------------------------------------------------------------| 
A|------------------------------------------------------------------| 
F|-5----------------------------------------------------------------| 

1st Vers: 

F|-----0-------0-9~---------------0--------0-4h5p4---------p0-------| 
C|-----0------------(12)-7-----p0-0------7---------5p0-4------p0----| 
F|-----0-----9--------------------0----------------------7-------p0-| 
C|---9-----9-----------------7--------7-----------------------------| 
A|------------------------------------------------------------------| 
F|-9-----9-----------------7---------7------------------------------| 

F|-----0-------------------0--------0-(X)-(7)-----------------------| 
C|-----0-----------------7---p0-----0-----(7)-----------------------| 
F|-----0-----7p0---9p0------------2~~-----(7)-----------------------| 
C|---5~~---5-----5-----5------------0-------------------------------| 
A|------------------------------3-----------------------------------| 
F|-5-----5-------5-----5--------------------------------------------| 

F|-----0-------0-9~-(12)-----0---------0-(7)-----0-------0----------| 
C|-----0---------------------0-----4s5---(7)-----0-5s4p0-0-h5-------| 
F|-----0-----9---------------0-----------(7)-----0-------0----------| 
C|---9-----9---------------5-----5-------------4--------------------| 
A|------------------------------------------------------------------| 
F|-9-----9---------------5-----5-------------4----------------------| 

F|-----0-------0----------0-------0----------0-------0--------------| 
C|-----0-------0----------0-5s4p0-0-5-----p0-0-5s4p0-0-7------------| 
F|-----0-5s4p0-0-5-----p0-0-------0----------0-------0--------------| 
C|---2---------------4------------------5------------------7~-------| 
A|------------------------------------------------------------------| 
F|-2---------------4------------------5------------------7----------| 

2nd Vers/Chorus: 

F|----(7)-----0-------0-7p0-5-(7)-----0--------------------0--------| 
C|-p0-(7)-----0---------------(7)-----0-----------------------------| 
F|----(7)-----0-----9---------(7)-----0----------------------0------| 
C|----------9-----9-----------------5-----5-----5-----5-------------| 
A|------------------------------------------7p0---8p0---10----------| 
F|--------9-----9-----------------5-----5-------5-----5-------------| 

F|-----0---------------------0-------0-------0-9~-(12)-----0--------| 
C|-----0-----------------------------0---------------------0--------| 
F|-----0-----------------------0-----0-----9---------------0--------| 
C|---7-----7-----7------7----------9-----9---------------5-----5----| 
A|-----------8p0---10p0---12----------------------------------------| 
F|-7-----7-------7------7--------9-----9---------------5-----5------| 

F|-----0-(7)-----0-------0-2-----p0-0-----0-----0-2-4-4-----p0-0----| 
C|-4s5---(7)-----0-5s4p0-0----------0-----0-5s4----------------0-5--| 
F|-------(7)-----0-------0-----2----2-----0--------------------0----| 
C|-------------4------------------------2-----------------4---------| 
A|---------------------------3--------------------------------------| 
F|-----------4------------------------2-----------------4-----------| 

F|-0-4-5-5-----p0-0---0-5-7-7-----p0-(7)~-0-------------------------| 
C|----------------0-5----------------(7)~-0-------------------------| 
F|----------------0------------------(7)~-0-------------------------| 
C|-----------5------------------7-----------------------------------| 
A|------------------------------------------------------------------| 
F|---------5------------------7-------------------------------------| 

3rd Vers:  

F|-----0-------0-9~---------------0--------0-4h5p4---------p0-------| 
C|-----0------------(12)-7-----p0-0------7---------5p0-4------p0----| 
F|-----0-----9--------------------0----------------------7-------p0-| 
C|---9-----9-----------------7--------7-----------------------------| 
A|------------------------------------------------------------------| 
F|-9-----9-----------------7---------7------------------------------| 

F|-----0-------------------0--------0-------------------0-----------| 
C|-----0-----------------7---p0-----0-----5p0---7p0---9---p0--------| 
F|-----0-----7p0---9p0--------------0-------------------------------| 
C|---5~~---5-----5-----5----------7-----7-----7-----7---------------| 
A|------------------------------------------------------------------| 
F|-5-----5-------5-----5--------7-----7-------7-----7---------------| 

F|-----0-------0-9-(12)-----0---------0----0-7------p0--------------| 
C|-----0--------------------0-----4s5---p0-0------------------------| 
F|-----0-----9--------------0--------------0-----4~----p0-----------| 
C|---9-----9--------------5-----5-----------------------------------| 
A|---------------------------------------------5--------------------| 
F|-9-----9--------------5-----5-------------------------------------| 

Bridge (part 1)  

F|------4s5s4p0-5s7-----p0-(5)-7s9p0------------(7)-----0-----------| 
C|-------------------------(5)-------9s7-----p0-(7)-7s9-------p0----| 
F|---4~--------------------(5)------------------(7)-----------------| 
C|--------------------5--------------------7----------------9-------| 
A|-5----------------------------------------------------------------| 
F|------------------5--------------------7----------------9---------| 

F|-(12)---------------------(7)-----0-------------------0-----------| 
C|------9s10s9p0-9s7-----p0-(7)-7s9---p0-2----------2s4---p0-7------| 
F|--------------------------(7)-------------------------------------| 
C|---------------------7---------------------5~---5--------------7--| 
A|------------------------------------------------------------------| 
F|-------------------7---------------------5----5--------------7----| 

F|----(7)-----0--------(12)---------------------(7)-----0-----------| 
C|-p0-(7)-7s9-------p0------9s10s9p0-9s7-----p0-(7)-7s9---p0-2------| 
F|----(7)---------------------------------------(7)-----------------| 
C|----------------9------------------------7------------------------| 
A|------------------------------------------------------------------| 
F|--------------9------------------------7--------------------------| 

F|---------------------------------(7)------------------------------| 
C|----------2s4p0-4s5p0-5s7-----p0-(7)------------------------------| 
F|---------------------------------(7)------------------------------| 
C|---5~---5-------------------7-------------------------------------| 
A|------------------------------------------------------------------| 
F|-5----5-------------------7---------------------------------------| 

Bridge (part 2)  

F|-9s11-----p0-(12)-9s11-----p0-(12)--------------------------0-----| 
C|-----------------------------------9s10-----p0-9p0-5s7--------p0--| 
F|------------------------------------------------------------------| 
C|--------9----------------7----------------5--------------7~-------| 
A|------------------------------------------------------------------| 
F|------9----------------7----------------5--------------7----------| 

F|-9s11-----p0-(12)-9s11-----p0-(12)-----------------------------(7)| 
C|-----------------------------------9s10-----p0-9p0-5s7------p0-(7)| 
F|---------------------------------------------------------------(7)| 
C|--------9----------------7----------------5--------------7~-------| 
A|------------------------------------------------------------------| 
F|------9----------------7----------------5--------------7----------| 

Bridge (part 3) 

F|-(12)---------------(12)----------------(12)----------------------| 
C|----------(12)---------------(12)----------------(12)-----(19)----| 
F|------------------------------------------------------------------| 
C|--------9-----9-9-9--------7------7-7-7--------5------5-5------5--| 
A|------------------------------------------------------------------| 
F|------9-------9-9-9------7--------7-7-7------5--------5-5------5--| 

F|-(12)--------------(19)-------------------------------------------| 
C|----------(12)----------------------------------------------------| 
F|------------------------------------------------------------------| 
C|--------7------7-7------7-----------------------------------------| 
A|------------------------------------------------------------------| 
F|------7--------7-7------7-----------------------------------------| 

F|-(12)---------------------(12)--------------(19)---(12)-----------| 
C|----------(12)-----(19)-----------(12)----------------------(12)--| 
F|------------------------------------------------------------------| 
C|--------9------9-9------9--------7------7-7------7--------5-------| 
A|------------------------------------------------------------------| 
F|------9--------9-9------9------7--------7-7------7------5---------| 

F|------------(12)--------------------------------------------------| 
C|-----(19)------------(12)-0---------------------------------------| 
F|--------------------------0---------------------------------------| 
C|-5-5------5--------7~-----0---------------------------------------| 
A|------------------------------------------------------------------| 
F|-5-5------5------7------------------------------------------------| 

4th vers: 

F|-----0-------0-9~---------------0--------0-4h5p4---------p0-------| 
C|-----0------------(12)-7-----p0-0------7---------5p0-4------p0----| 
F|-----0-----9--------------------0----------------------7-------p0-| 
C|---9-----9-----------------7--------7-----------------------------| 
A|------------------------------------------------------------------| 
F|-9-----9-----------------7---------7------------------------------| 

F|-----0-------------------0--------0-(X)-(7)-----------------------| 
C|-----0-----------------7---p0-----0-----(7)-----------------------| 
F|-----0-----7p0---9p0------------2~~-----(7)-----------------------| 
C|---5~~---5-----5-----5------------0-------------------------------| 
A|------------------------------3-----------------------------------| 
F|-5-----5-------5-----5--------------------------------------------| 

F|-----0-------0-9~-(12)-----0---------0-(7)-----0-------0-h5-------| 
C|-----0---------------------0-----4s5---(7)-----0-5s4p0-0----------| 
F|-----0-----9---------------0-----------(7)-----0-------0----------| 
C|---9-----9---------------5-----5-------------4--------------------| 
A|------------------------------------------------------------------| 
F|-9-----9---------------5-----5-------------4----------------------| 

F|-----0-------0---------0-------0-5-----p0-0-5s4p0-0-7-----p0-(7)--| 
C|-----0-------0-5----p0-0-5s4p0-0----------0-------0----------(7)--| 
F|-----0-5s4p0-0---------0-------0----------0-------0----------(7)--| 
C|---2---------------4-----------------5------------------7---------| 
A|------------------------------------------------------------------| 
F|-2---------------4-----------------5------------------7-----------| 

Outro: 

F|---------0----5s4-----p0---0-5s7-----p0-(7)-----------------------| 
C|-7s9-------p0------------5--------------(7)-----------------------| 
F|----------------------------------------(7)-----------------------| 
C|-------9------------5--------------7------------------------------| 
A|------------------------------------------------------------------| 
F|-----9------------5--------------7--------------------------------| 

F|---------0----5s4-----p0---0-5s7-----p0-(7)-(12)~~----------------| 
C|-7s9-------p0------------5--------------(7)-(12)~~----------------| 
F|----------------------------------------(7)-(12)~~----------------| 
C|-------9------------5--------------7------------------------------| 
A|------------------------------------------------------------------| 
F|-----9------------5--------------7----------~~0~~-----------------| 
 
	  

Solicitar el vídeo de "Chasing Rhythms" - Descargar Chasing Rhythms mp3

No existe una video leccione para esta canción

solicitar
140

Envie sus comentários.

0 comentários

 
LosAcordes
Buscar
auto avanzar rasgueos aumentar disminuir cambiar color esconder acordes gráficos
losacordes exhibir acordes losacordes youTube video losacordes ocultar tabs losacordes cambiar notación losacordes ir hacia arriba losacordes