Charlie Parra

Início > Charlie Pa... > acordes

The Dragonborn Comes Tablatura

Charlie Parra

Dificultad:AdelantadoAdelantado

por robepoiel

tuner correct add songbook print version text version salvar en e-mail
acordesukuleletablaturabajobateríaarmónicaflautacavacopiano Guitar Pro
acordes

The Dragonborn Comes

	  

e|---------------------------------------------------------------------------| 
B|---------------------------------------------------------------------------| 
G|------(7)~~~~~~~~~~~~~~------------------(7)~~~~~~~~~~~~-------------------| 
D|---------------------------------------------------------------------------| 
A|---------------------------------------------------------------------------| 
E|---------------------------------------------------------------------------| 

e|---------------------------------------------------------------------------| 
B|---------------------------------------------------------------------------| 
G|--------------9-9/10-10-12-9---------------------------/10-9---------------| 
D|-----10h12-12----------------12-10-10h12~~~~~~~~~~~----------12-10-10h12---| 
A|---------------------------------------------------------------------------| 
E|---------------------------------------------------------------------------| 

e|-------------------------------------------------------/13-12--------------| 
B|--------------------------------------------------------------15-13-13h15--| 
G|--------------9-9/10-10-12-9-----------------------------------------------| 
D|-----10h12-12----------------12-10-10h12~~~~~~~~~~~------------------------| 
A|-/12-----------------------------------------------------------------------| 
E|---------------------------------------------------------------------------| 

e|---------------------------------------------15-12----------12-17-13-------| 
B|---------------------------------------------------13----13----------15----| 
G|--------------9-9/10-10-12-9--------------------------12----------------14-| 
D|-----10h12-12----------------12-10-10h12\-/7-------------------------------| 
A|-/12-----------------------------------------------------------------------| 
E|---------------------------------------------------------------------------| 

e|-------------------------------------------------------/13-12--------------| 
B|----------------------------------------------10~~~~~~--------15-13-13h15--| 
G|--------------9-9/10-10-12-9-----------------------------------------------| 
D|-----10h12-12----------------12-10-10h12~~~~~------------------------------| 
A|-/12-----------------------------------------------------------------------| 
E|---------------------------------------------------------------------------| 

e|---------------------------------------------------------------------------| 
B|---------------------------------------------------------------------------| 
G|-------------9-9/10~~~~~-10-10/12-9~~~~~-7-5-4~~~~~------------------------| 
D|-/12~~~~~-12---------------------------------------------------------------| 
A|---------------------------------------------------------------------------| 
E|---------------------------------------------------------------------------| 

e|---------------------------------------------------------------------------| 
B|-------------------------10-13-13/15~~~~~-13-15b17-15~~~~~-----------------| 
G|-------------9-9/10~~~~~---------------------------------------------------| 
D|-/12~~~~~-12---------------------------------------------------------------| 
A|---------------------------------------------------------------------------| 
E|---------------------------------------------------------------------------| 

e|---------------------------------------------------------------------------| 
B|-------------------------10-13-13/15~~~~~-13-15b17-15~~~~~-15b17br15\------| 
G|-------------9-9/10~~~~~---------------------------------------------------| 
D|-/12~~~~~-12---------------------------------------------------------------| 
A|---------------------------------------------------------------------------| 
E|---------------------------------------------------------------------------| 

e|---------------------------------------------------------------------------| 
B|-8/10-11b13br11----------/10-8---------------------------------------------| 
G|----------------10\7---7-------9-------9-9h10~~~-9h10p9----9---------------| 
D|---------------------8-----------10-12------------------12---12-10-9~~~~---| 
A|---------------------------------------------------------------------------| 
E|---------------------------------------------------------------------------| 

e|--------------------------------------6-10-6-------------------------------| 
B|---------------------------------------------------------------------------| 
G|------------------------7h10p7---7-10--------9~~~~-10---------10h12-12b14--| 
D|-10-9h10p9-5-7-5\-/8~~~--------8----------------------9/10-12--------------| 
A|---------------------------------------------------------------------------| 
E|---------------------------------------------------------------------------| 

e|--------------------------------10-13-15b17~~~-15-13-15~~~~~~~~~~~---------| 
B|-----------------------13b15~~~--------------------------------------------| 
G|-12pb14-10h12p10h12p10-----------------------------------------------------| 
D|---------------------------------------------------------------------------| 
A|---------------------------------------------------------------------------| 
E|---------------------------------------------------------------------------| 

e|-13-10----------10h13p10t13p10h13t15p13p10t13p10---------------------------| 
B|-------11----11---------------------------------t15p11--------t15p11-------| 
G|----------10-------------------------------------------t15p10--------t15p10| 
D|---------------------------------------------------------------------------| 
A|---------------------------------------------------------------------------| 
E|---------------------------------------------------------------------------| 

e|---------------------------------------------------------------------------| 
B|------------------------------------10-------------------------------------| 
G|-\5---5h7-7b9-7b9-7b9-5h7p5-5h7~~~--12b4-10h12p10-12~~~~~\-----------------| 
D|----7----------------------------------------------------------------------| 
A|---------------------------------------------------------------------------| 
E|---------------------------------------------------------------------------| 

e|---------------------------------------------------------------------------| 
B|-------------------------8---------------------------------5-6-5h6p5-------| 
G|-/10-9-10~-10-9-10~-9-10---10-9h10p9-7~-/7-5-7~-7-5-7~-5-7-----------7-----| 
D|---------------------------------------------------------------------------| 
A|---------------------------------------------------------------------------| 
E|---------------------------------------------------------------------------| 

e|---------------------------------------------------------------------------| 
B|-------------------------8---------------------------------5-6-5h6p5-------| 
G|-/10-9-10~-10-9-10~-9-10---10-9h10p9-7~-/7-5-7~-7-5-7~-5-7-----------7~~~~~| 
D|---------------------------------------------------------------------------| 
A|---------------------------------------------------------------------------| 
E|---------------------------------------------------------------------------| 

e|---------------------------------------------------------------------------| 
B|---------------------------------------------------------------------------| 
G|-tap-harmonic-(19)~~~~~~~~~~~~~~~~~~~~~~~~~~-------------------------------| 
D|---------------------------------------------------------------------------| 
A|---------------------------------------------------------------------------| 
E|---------------------------------------------------------------------------| 

e|---------------------------------------------------------------------------| 
B|---------------------------------------------------------------------------| 
G|-------------9-9/10~~~~~-10-10/12-9~~~~~-7-5-4~~~~~------------------------| 
D|-/12~~~~~-12---------------------------------------------------------------| 
A|---------------------------------------------------------------------------| 
E|---------------------------------------------------------------------------| 

e|---------------------------------------------------------------------------| 
B|-------------------------10-13-13/15~~~~~-13-15b17-15~~~~~-15b17\----------| 
G|-------------9-9/10~~~~~---------------------------------------------------| 
D|-/12~~~~~-12---------------------------------------------------------------| 
A|---------------------------------------------------------------------------| 
E|---------------------------------------------------------------------------| 

e|---------------------------------------------------------------------------| 
B|-------------------------10-13-13/15~~~~~-13-15b17-15~~~~~-15b17br15-------| 
G|-------------9-9/10~~~~~---------------------------------------------------| 
D|-/12~~~~~-12---------------------------------------------------------------| 
A|---------------------------------------------------------------------------| 
E|---------------------------------------------------------------------------| 

e|---------------------------------------------------------------------------| 
B|---------------------------------------------------------------------------| 
G|-(7)~~~~~~~~~~~~-----------------------------------------------------------| 
D|---------------------------------------------------------------------------| 
A|---------------------------------------------------------------------------| 
E|---------------------------------------------------------------------------| 

 
	  

No existe una video leccione para esta canción

request
LosAcordes
Buscar
auto avanzar rasgueos aumentar disminuir cambiar color esconder acordes gráficos
losacordes exhibir acordes losacordes youTube video losacordes ocultar tabs losacordes ir hacia arriba losacordes