Catupecu Machu

Início > Catupecu M... > acordes

El Viaje Del Miedo Tablatura

Catupecu Machu

Dificultad:IntermedioIntermedio

por sweet.second

tuner correct add songbook print version text version salvar en e-mail
acordesukuleletablaturabajobateríaarmónicaflautacavacopiano Guitar Pro
acordes

El Viaje Del Miedo

	    La saque de otra pagina... 
  pero da lo mismo, es buena... 







E|----------------------3--5--7-------------------0------| 
B|--------3h0-----0--0--5--7--8-------8---------8--------| 
G|-0/0--0-----0---0--0--------------0---------0----------| 
D|-3/2--2-------2-2--2------------7---------7--------6/0-| 
A|-3/2--2---------2--2----------7---------7----------6/0-| 
E|--------------------------------------8------------6/0-| 

4 tiempos marcados por la bateria 

E|----------------------3--5--7-------------------0------| 
B|--------3h0-----0--0--5--7--8-------8---------8--------| 
G|-0/0--0-----0---0--0--------------0---------0----------| 
D|-3/2--2-------2-2--2------------7---------7--------6/0-| 
A|-3/2--2---------2--2----------7---------7----------6/0-| 
E|--------------------------------------8------------6/0-| 

Te resucito en el sueño 
es lo que espero encontrar. 
Entro en el viaje del miedo 
abro la puerta al cerrar. 

E|----------------------3--5--7-------------------0------| 
B|--------3h0-----0--0--5--7--8-------8---------8--------| 
G|-0/0--0-----0---0--0--------------0---------0----------| 
D|-3/2--2-------2-2--2------------7---------7--------6/0-| 
A|-3/2--2---------2--2----------7---------7----------6/0-| 
E|--------------------------------------8------------6/0-| 

e|------------------------------------------------------| 
B|------------------------------------------------------| 
G|------------------------------------------------------| 
D|------------------------------------------------------| 
A|-9-9-9-9-7-7-10-10-10-9-9-7-7-5--5-5-5-5-4-7-7-5-10-9-| 
E|-7-7-7-7-5-5-8--8--8--7-7-5-5-3--3-3-3-3-2-5-5-3-8--7-| 

Encierro el mar 
pongo el grito en el cielo. 
Clavo una cruz 
muerdo arena, miento. 


e|-----------------------------------------------------------------| 
B|-----------------------------------------------------------------| 
G|-----------------------------------------------------------------| 
D|-----5-5-5-5-5-5-5-4-4-4-4-4-4-4-4-2-2-2-2-2-2-2-2-1-2-1-2-1-2-4-| 
A|----------------------------------------------------------------| 
E|-1/5-------------------------------------------------------------| 

Deshojas flor 
corres campos de cardos 
en sonidos de recuerdos. 

e|----------------------------------------------| 
B|-------8----------8---------------------8-----| 
G|--------------------9---------------------9-9-| 
D|---7----------7------------7--------7-------7-| 
A|-7---7------7---7--------7---7----7---7-----7-| 
E|----------8------------8--------8-----------8-| 

           encuéntrameeeeeeeee... 

e|---| 
B|-8-| 
G|-9-|   Esto se toco junto con el verso de abajo. 
D|-7-|    
A|-7-| 
E|-7-| 

Carne y hueso, hueso y nada. 

e|-----------------------------| 
B|-----------------------------| 
G|-----------------------------| 
D|-----------------7-9---------| 
A|-10p9--------7-9-----9-------| 
E|------10-5-7---------7-7-3-3-| 


E|----------------------3--5--7-------------------0------| 
B|--------3h0-----0--0--5--7--8-------8---------8--------| 
G|-0/0--0-----0---0--0--------------0---------0----------| 
D|-3/2--2-------2-2--2------------7---------7--------6/0-| 
A|-3/2--2---------2--2----------7---------7----------6/0-| 
E|--------------------------------------8------------6/0-| 

Te resucito en el sueño 
es lo que espero encontrar. 
Entro en el viaje del miedo 
abro la puerta al cerrar. 

E|----------------------3--5--7-------------------0------| 
B|--------3h0-----0--0--5--7--8-------8---------8--------| 
G|-0/0--0-----0---0--0--------------0---------0----------| 
D|-3/2--2-------2-2--2------------7---------7--------6/0-| 
A|-3/2--2---------2--2----------7---------7----------6/0-| 
E|--------------------------------------8------------6/0-| 

e|------------------------------------------------------| 
B|------------------------------------------------------| 
G|------------------------------------------------------| 
D|------------------------------------------------------| 
A|-9-9-9-9-7-7-10-10-10-9-9-7-7-5--5-5-5-5-4-7-7-5-10-9-| 
E|-7-7-7-7-5-5-8--8--8--7-7-5-5-3--3-3-3-3-2-5-5-3-8--7-| 

Llanto que aflora 
y su flor alimento, 
envenena el dolor 
cae muerto. 

e|-----------------------------------------------------------------| 
B|-----------------------------------------------------------------| 
G|-----------------------------------------------------------------| 
D|-----5-5-5-5-5-5-5-4-4-4-4-4-4-4-4-2-2-2-2-2-2-2-2-1-2-1-2-1-2-4-| 
A|-----------------------------------------------------------------| 
E|-1/5-------------------------------------------------------------| 

Faltan pedazos, 
estrofas y versos 
en lo peor de mis sueños. 

e|----------------------------------------------| 
B|-------8----------8---------------------8-----| 
G|--------------------9---------------------9-9-| 
D|---7----------7------------7--------7-------7-| 
A|-7---7------7---7--------7---7----7---7-----7-| 
E|----------8------------8--------8-----------8-| 

           despiertameeeeeeeeee... 

e|---| 
B|-8-| 
G|-9-|    
D|-7-|    
A|-7-| 
E|-7-| 

Carne y hueso, hueso y nada. 

e|-----------------------------| 
B|-----------------------------| 
G|-----------------------------| 
D|-----------------7-9---------| 
A|-10p9--------7-9-----9-------| 
E|------10-5-7---------7-7-3-3-| 

E|----------------------3--5--7-------------------0------| 
B|--------3h0-----0--0--5--7--8-------8---------8--------| 
G|-0/0--0-----0---0--0--------------0---------0----------| x2 
D|-3/2--2-------2-2--2------------7---------7--------6/0-| 
A|-3/2--2---------2--2----------7---------7----------6/0-| 
E|--------------------------------------8------------6/0-| 

Te resucito en el sueño 
es lo que espero encontrar. 
Entro en el viaje del miedo 
abro la puerta al cerrar. 

Solo: 

e|-----------------------------------------------------------------| 
B|-----------------------------------------------------------------| 
G|-----------------------------------------------------------------| 
D|-----------------------------------------------------------------| 
A|-9-9-9-9-7-7-10-10-10-9-9-7-7-5--5-5-5-5-4-7-7-5-5-10-9-10-12-13-| 
E|-7-7-7-7-5-5-8--8--8--7-7-5-5-3--3-3-3-3-2-5-5-3-3-8--7-8--10-11-| 

e|--------------------------------------------| 
B|-8-8-8-8/7-8-11/10-10-7-10------------------| 
G|-9-9-9-9/8-9-12/11-11-8-11---------3h4------| 
D|-9-9-9-9/8-9-12/11-11-8-11-----4h5----------| 
A|---------------------------6h7---------6--7-| 
E|--------------------------------------------| 


e|----------------------------------------------------------| 
B|----------------------------------------------------------| 
G|----------------------------------------------------------| 
D|---4-5---7-7-7-7p5----------------------------------------| 
A|-7-----7-----------6h7------------------5-5-6-6-7-7-7-7-7-| 
E|-----------------------6-7-8-6-7-2--3-7-------------------| 

e|----------------------------------------------|---| 
B|-------8----------8---------------------8-----|-8-| 
G|--------------------9---------------------9-9-|-9-| 
D|---7----------7------------7--------7-------7-|-7-| 
A|-7---7------7---7--------7---7----7---7-----7-|-7-| 
E|----------7------------7--------7-----------7-|-7-| 
                                                   | 
                                                   | 
                                           rasguear 4 tiempos 
e|---------------------------------| 
B|---------------------------------| 
G|---------------------------------| 
D|---------------------------------| 
A|---5---5---4/5-5-----------------| 
E|-7---7---7-------5/7-5-3-5-5-5/7-| 


E|----------------------3--5--7-------------------0------| 
B|--------3h0-----0--0--5--7--8-------8---------8--------| 
G|-0/0--0-----0---0--0--------------0---------0----------| 
D|-3/2--2-------2-2--2------------7---------7--------7/0-| 
A|-3/2--2---------2--2----------7---------7----------7/0-| 
E|--------------------------------------8------------7/0-| 

Te resucito en el sueño 
es lo que espero encontrar. 
Entro en el viaje del miedo 
abro la puerta al cerrar 

e|------------------x-3-5-7-|  | 
B|--------------8--7x-5-7-8-|  | 
G|--------9-----9--8x-------|  | 
D|-9/10-9---9---9--8x-------|  |__________________ x3 
A|-7/8--7----7------x-------|  | 
E|-7/8--7-----7-----x-------|  | 
                              | 
Te resucito en el sueño       | 
                        ______/ 
e|---| 
B|-8-| 
G|-9-|    
D|-7-|    
A|-7-| 
E|-7-| 

Te resucito en el sueño 

e|----------------------|-| 
B|-------8----------8---|8| 
G|--------------------9-|9| 
D|---7----------7-------|7| 
A|-7---7------7---7-----|7| 
E|----------7-----------|7| 
                          | 
                          |___rasguear 4 tiempos 


E|----------------------3--5--7-------------------0------| 
B|--------3h0-----0--0--5--7--8-------8---------8--------| 
G|-0/0--0-----0---0--0--------------0---------0----------| 
D|-3/2--2-------2-2--2------------7---------7--------6/0-| 
A|-3/2--2---------2--2----------7---------7----------6/0-| 
E|--------------------------------------8------------6/0-| 
	  

No existe una video leccione para esta canción

request
LosAcordes
Buscar
auto avanzar rasgueos aumentar disminuir cambiar color esconder acordes gráficos
losacordes exhibir acordes losacordes youTube video losacordes ocultar tabs losacordes ir hacia arriba losacordes