Carlos Santana

Início > Carlos San... > acordes

I Love You Too Much Tablatura

Carlos Santana

Dificultad:AdelantadoAdelantado

por marcnagel

tuner correct add songbook print version text version salvar en e-mail
acordesukuleletablaturabajobateríaarmónicaflautacavacopiano Guitar Pro
acordes

I Love You Too Much

	  Carlos S 

e|-----7---------------------------------------------| 
B|---------10--8-7-10~~-------10---9--8-7-8~~--------| 
G|---------------------------------------------------| 
D|-/9---------------------/9-------------------------| 
A|---------------------------------------------------| 
E|---------------------------------------------------| 
   
e|---------------------------------------------------| 
B|-----7h8--8-7---7~~--------------------------------| 
G|--------------9--------------6---8---9~~-----------| 
D|-/9----------------------9-------------------------| 
A|---------------------------------------------------| 
E|---------------------------------------------------| 

e|-----------------------------------7---------------| 
B|-------7-----8-----10-----10---9-10---10~~---------| 
G|-9-------------------------------------------------| 
D|---------------------------------------------------| 
A|---------------------------------------------------| 
E|---------------------------------------------------| 

e|------7h8---7---7----7-----------------------------| 
B|------------------10-----10s12~~-------------------| 
G|-7-------------------------------------------------| 
D|---------------------------------------------------| 
A|---------------------------------------------------| 
E|---------------------------------------------------| 

e|---------------------------------------------------| 
B|-12----11----7--7-10--10~~-------8-----10p8p7~~----| 
G|--------------10-----------------------------------| 
D|---------------------------------------------------| 
A|---------------------------------------------------| 
E|---------------------------------------------------| 

 
	  

No existe una video leccione para esta canción

request
LosAcordes
Buscar
auto avanzar rasgueos aumentar disminuir cambiar color esconder acordes gráficos
losacordes exhibir acordes losacordes youTube video losacordes ocultar tabs losacordes ir hacia arriba losacordes