A B C D E F G H I J K L M N O P Q R S T U V X Y Z 0-9
Carlos Santana

Início > Carlos San... > acordes

Carlos Santana

Flor de luna--moonflower

Dificultad:ExpertoExperto

por maxpms

tuner corregir añadir para songbook version para impresion version de texto version rtf e-mail
acordestablaturabajobateríaarmónicaflautacavacopiano Guitar Pro
acordes

Flor de luna--moonflower

	  Intro 
0:00 Cd time=20 
                               (0:05) 
e----------10-----------------10-----------------------------| 
B-------10-----13-11---10vv-----------13--11--10b11r10-------| 
G--------------------------------------------------------12\-| 
D-12---------------------------------------------------------| 
A------------------------------------------------------------| 
E------------------------------------------------------------| 


  (0:08)                       (0:12) 
e--------------------------------------------------10v-| 
B--------------------10\--------10--11--13--11-10------| 
G-9--10--12----10-9------------------------------------| 
D------------------------------------------------------| 
A------------------------------------------------------| 
E------------------------------------------------------| 

(0:16)                                                               =20 
e------------------------| 
B-----10-10/11-10---9/10-| 
G-12-------------12------| 
D------------------------| 
A------------------------| 
E------------------------|=20 
=20 
 (0:17)                                   (0:22) 
e-------------------------------------------------| 
B-------------------------------------------------|0 
G--10-12-12/14-12---10--12---9--10---12--10-------|}Bis 
D-------------------------------------------10-12-|0 
A-------------------------------------------------| 
E-------------------------------------------------| 

                                =20 
         (0:47)=20 
e-----------------------10vv\-----13--12-11-12b13r12-| 
B--------10--11--13----------------------------------| 
G----------------------------------------------------| 
D----------------------------------------------------| 
A----------------------------------------------------| 
E----------------------------------------------------|                   = 
      =20 

e----------------------------------------------------| 
B----13h15-13---10b(11)r10---------8-10-10h11-10vv---| 
G-14----------------------12--9-10-------------------| 
D----------------------------------------------------| 
A----------------------------------------------------| 
E----------------------------------------------------| 

         (1:02)                   (1:06) 
e-----------------------10vv------15-13-12-13--15-12b13r12-| 
B--------10--11--13----------------------------------------| 
G----------------------------------------------------------| 
D----------------------------------------------------------| 
A----------------------------------------------------------| 
E----------------------------------------------------------| 

e---------------------------|----------------------------| 
b-131313-10-13h15-13h15-13--|----------------------------| 
G---------------------------|-12-10-9v--9-10-12-10-------| 
D---------------------------|----------------------10-12-| 
A---------------------------|----------------------------| 
E---------------------------|----------------------------| 


  (1:18) 
e----------10--------------------10------------------------------| 
B-------10-----13p11---10vv--------------13--11--10b11r10--------| 
G------------------------------------------------------------12\-| 
D-12-------------------------------------------------------------| 
A----------------------------------------------------------------| 
E----------------------------------------------------------------| 


                                                  (1:31) 
e--------------------------------------------------10v-------------------------- 
B--------------------10\--------10--11--13--11-10-----------10-10/11-10----9/10- 
G-9--10--12----10-9--------------------------------------12-------------12------ 
D------------------------------------------------------------------------------- 
A------------------------------------------------------------------------------- 
E------------------------------------------------------------------------------- 

e-------------------------------------------| 
B-------------------------------------------| 
G-10-12-12/14-12h14p12-10-12-9-10-12-9--10--| 
D-------------------------------------------| 
A-------------------------------------------| 
E-------------------------------------------| 

  (1:39) |Piano -> 
e--------------------------------------------------------| 
B-----------10------8-11-8-9-10-------10------8-11-8-8-9-| 
G--------10----10-9----------------10----10-9------------| 
D-10--12------------------------12-----------------------| 
A--------------------------------------------------------| 
E--------------------------------------------------------| 


 (1:47)               (1:50) 
e-------------------------------10---------| 
B-10v-----11--10-------10-11-10-----10-----| 
G-----------------12-------------------12v-| 
D------------------------------------------| 
A------------------------------------------| 
E------------------------------------------| 

                   (1:56)                (1:59) 
e------------------------------------------10-----------------| 
B-11----11-10v----11-10---------11---11-10------9/10----------| 
G----12-----------------12--------12------------------12------| 
D-----------------------------13------------------------------| 
A-------------------------------------------------------------| 
E-------------------------------------------------------------| 

 (2:02)                        (2:04) 
e---------------------------------------| 
B---------------------------------------| 
G-1212121212h14-10----10----------------| 
D------------------12----12-------------| 
A------------------------------10----10-| 
E---------------------------------12----| 

 (2:05) 
e--------------------10-----------12--------------12-----| 
B------------10---10----10-----10----10--10--10-------10-| 
G------9-10----------------------------------------------| 
D----12--------------------------------------------------| 
A--12----------------------------------------------------| 
E--------------------------------------------------------| 

e----12b13-12b13-12b13-12b13-12b(13)r12-10-8h10--------------------| 
B-10-------------------------------------------1310----------------| 
G--------------------------------------------------1210---10-12p10-| 
D------------------------------------------------------12----------| 
A------------------------------------------------------------------| 
E------------------------------------------------------------------| 

  (2:16) 
e----------------------------------------------| 
B----------------------------------------------| 
G-10-1212--10-1212--10-10h1212--10h12--10-1212-| 
D----------------------------------------------| 
A----------------------------------------------| 
E----------------------------------------------| 

e---------------10-----------------------------| 
B---------------------13p10--------------------| 
G--10-12b(13)---------------12p10-----10-12p10-| 
D----------------------------------12----------| 
A----------------------------------------------| 
E----------------------------------------------| 

  (2:21) 
e--14b(15)-14b(15)-14b(15)-14b(15)-14b(15)-14b(15)-14b(15)-15b(15.5)--| 
B---------------------------------------------------------------------| 
G---------------------------------------------------------------------| 
D---------------------------------------------------------------------| 
A---------------------------------------------------------------------| 
E---------------------------------------------------------------------| 

                                                 |-Repetir R=E1pido-| 
e-10b-10b------------------------13----13p12------->13p12p1013<-| 
B---------13p10--------------------10--------10-----------------| 
G---------------12p10----10-12b13-------------------------------| 
D---------------------12----------------------------------------| 
A---------------------------------------------------------------| 
E---------------------------------------------------------------| 

 |-Varias Veces-| 
    |-R=E1pido-|   _-Bajar Velocidad-_ 
e--->13p12p10<------13-p-12-p-10-----13p12p10-12-13-10-| 
B------------------------------------------------------| 
G------------------------------------------------------| 
D------------------------------------------------------| 
A------------------------------------------------------| 
E------------------------------------------------------| 

  (2:36) 
e|-13/17---17h18-17--15--20--18--17v-17v-18-17\---| 
B|--------------------------------------------| 
G|--------------------------------------------| 
D|--------------------------------------------| 
A|--------------------------------------------| 
E|--------------------------------------------| 

       |-Varias Veces-| 
          |-R=E1pido-| 
e-10/12-1212---15-10--13----12----10-->13p12p10<-| 
B------------------------13----12-------------------| 
G---------------------------------------------------| 
D---------------------------------------------------| 
A---------------------------------------------------| 
E---------------------------------------------------| 

 (2:49) 
e|------------------------------------| 
B|------------------------------------| 
G|------------------------7-6---7h9-7-| 
D|---------5---7--5--8-7--------------| 
A|-5--8--7---8------------------------| 
E|------------------------------------| 



e--------------10---13--12--(10)h12--------------10------------| 
B--10--11--13------------------------13p10---13------13--------| 
G--------------------------------------------------------------| 
D--------------------------------------------------------------| 
A--------------------------------------------------------------| 
E--------------------------------------------------------------| 


e----------------------10------------| 
B---12b13r12\-9--10--12-----10h11p10-| 
G------------------------------------| 
D------------------------------------| 
A------------------------------------| 
E------------------------------------| 

                                                                         = 
       =20 
e-----------10------15---13--12--15 13h15--------------| 
B-10-11-13---------------------------------15bv17------| 
G------------------------------------------------------| 
D------------------------------------------------------| 
A------------------------------------------------------| 
E------------------------------------------------------| 


e|-----------------------------------| 
B|----13--13--13--10--13/15\13-------| 
G|-----------------------------------| 
D|-----------------------------------| 
A|-----------------------------------| 
E|-----------------------------------| 


e------------------------------------| 
B------------------------------------| 
G-12--10--9--910--12-----------------| 
D---------------------10--12---------| 
A------------------------------------| 
E------------------------------------| 


e-----------10------------------------------------------------10| 
B--------10----11---10b11r10-3times-10b11r10\--13--11--10b11p8--| 
G---------------------------------------------------------------| 
D---12----------------------------------------------------------| 
A---------------------------------------------------------------| 
E---------------------------------------------------------------| 


e--------------------------------------------------10vv--| 
B--------------------10/-------10--11--13--11--10--------| 
G---9--10--12\10--9--------------------------------------| 
D--------------------------------------------------------| 
A--------------------------------------------------------| 
E--------------------------------------------------------| 


e---------------------------------------------------------------| 
B-----10-10/11--10----------------------------------------------| 
G-12----------12---(10)--10/12--(14)14\12--10--12---9--10-12--9-| 
D---------------------------------------------------------------|=20 
A---------------------------------------------------------------| 
E---------------------------------------------------------------| 


Transcrito Por: CHDUCH (TOPER) 
Comentarios a: chduch@hotmail.com 
               christopher@reygil.com 
              =20 
    12:14 AM 4/17/2001 



	  

Solicitar el vídeo de "Flor de luna--moonflower" - Descargar Flor de luna--moonflower mp3

No existe una video leccione para esta canción

solicitar
140

Envie sus comentários.

0 comentários

 
LosAcordes
Buscar
auto avanzar rasgueos aumentar disminuir cambiar color esconder acordes gráficos
losacordes exhibir acordes losacordes youTube video losacordes ocultar tabs losacordes cambiar notación losacordes ir hacia arriba losacordes