Carlos Gardel

Início > Carlos Gar... > acordes

Por Una Cabeza Tablatura

Carlos Gardel

Dificultad:ExpertoExperto

por HQTGXGT CNQPG

tuner correct add songbook print version text version salvar en e-mail
acordesukuleletablaturabajobateríaarmónicaflautacavacopiano Guitar Pro
acordes

Por Una Cabeza

Áño: 1998 - Álbum: Tangos Argentinos

(Alfredo Le Pera e Carlos Gardel)

	  E||--------------|----------------|----------------|----------------| 
B||--------------|----------------|--0-----1-3-0-1-|----0-----------| 
G||--------------|--------------0-|-----2----------|--2----0-2-0----| 
D||--------0-1-2-|--3--2--1-2-3---|--2-------------|--------------2-| 
A||------3-------|------------5---|----------------|----------------| 
E||--------------|----------------|----------------|----------------| 
 
-----------0---|---------------|---------------|------------------| 
-------3-1---3-|--0----0---1-0-|-------------0-|--1-0-------------| 
---------------|-------0-3-----|--0----0-2-3---|------0-----0-----| 
--0------------|---------------|---------------|--------3-2---2-0-| 
---------------|---------------|---------------|------------------| 
---------------|---------------|---------------|------------------| 
 
---------------|----------------|----------------|----------------| 
---------------|----------------|--0-------0-1---|--0---0-1-0-----| 
---------------|--------------0-|-----2--2-----2-|----2--------2--| 
---------0-1-2-|--3--2--1-2-3---|--2-------------|----------------| 
--3----3-------|------------5---|----------------|----------------| 
---------------|----------------|----------------|----------------| 
 
---------------|------------------|----------------|----------------| 
-------0-------|------------------|----------0-1---|--0---------0---| 
---------2-----|------------2-1---|--2-----2-----2-|--------0-2---0-| 
--0--------3-0-|--------0-4-----3-|--2--2--2-------|--1--3--1-------| 
--8------------|--3-2-3-----------|----------------|----------------| 
---------------|------------------|----------------|----------------| 
 
-----------|------------0-|--0---------|--------------|------------| 
-----------|----1--1--3---|-------0----|----------0-1-|--1---------| 
--2--------|--------------|------------|----2--2------|-------0----| 
-----------|--------------|------------|--------------|------------| 
--3--------|--------------|------------|--------------|------------| 
-----------|--------------|------------|--------------|------------| 
 
--------------|----------------|----------------|------------|------------0-| 
--------------|----------0-1---|--0-------0-1---|--1----0----|----1--1--3---| 
----------0-2-|--2-----2-----2-|--------2-----2-|------------|--------------| 
----3--3------|-----2----------|-----4----------|------------|--------------| 
--------------|----------------|----------------|------------|--------------| 
--------------|----------------|----------------|------------|--------------| 
 
--0---------|--------------|------------|--------------|----------------| 
-------0----|----------0-1-|--1---------|--------------|----------0-1---| 
------------|----2--2------|-------0----|----------0-2-|--2-----2-----2-| 
------------|--------------|------------|----3--3------|-----2----------| 
------------|--------------|------------|--------------|----------------| 
------------|--------------|------------|--------------|----------------| 
 
----------------|---------------|-----------|---|| 
--0---------0---|---------------|-----------|---|| 
--------1-2---0-|--2------------|--2--------|---|| 
-----4----------|---------0-1-2-|-----------|---|| 
----------------|--3----4-------|--3--------|---|| 
----------------|---------------|-----------|---|| 

	  

No existe una video leccione para esta canción

request
LosAcordes
Buscar
auto avanzar rasgueos aumentar disminuir cambiar color esconder acordes gráficos
losacordes exhibir acordes losacordes youTube video losacordes ocultar tabs losacordes ir hacia arriba losacordes