A B C D E F G H I J K L M N O P Q R S T U V X Y Z 0-9
Caifanes

Início > Caifanes > acordes

Caifanes

Viento

Dificultad:Ningún gradoNingún grado

por elzavalita

tuner corregir añadir para songbook version para impresion version de texto version rtf e-mail
acordestablaturabajobateríaarmónicaflautacavacopiano Guitar Pro
acordes

Viento

Tono:  D Más
Viento Tono G#G#
Viento Tono AA
Viento Tono A#A#
Viento Tono BB
Viento Tono CC(Disminuir uno tono)
Viento Tono C#C#(Disminuir uno semi-tono)
Viento Tono DD(tono original)
Viento Tono D#D#(Aumentar uno semi-tono)
Viento Tono EE(Aumentar uno tono)
Viento Tono FF
Viento Tono F#F#
Viento Tono GG
	  prestame tu peine 
     D 
G-------------------------------------- 
D--------------------------4------------ 
A---5-5-5-5----5-5-5-5--7--------------- 
E-------------------------------------- 

y peiname el alma 
     b 
G------------------------- 
D------------------------- 
A--2-2-2-2---------------- 
E------------------------- 

     G 
G---------------------- 
D---------------------- 
A---------------------- 
E--3-3-3--------------- 

     A 
G---------------------- 
D---------------------- 
A------7--------------- 
E----5----------------- 


desenredame 
     D 
G-------------------------------------- 
D--------------------------4------------ 
A---5-5-5-5----5-5-5-5--7--------------- 
E-------------------------------------- 

fuera de este mundo 
     b 
G------------------------- 
D------------------------- 
A--2-2-2-2---------------- 
E------------------------- 

     G 
G---------------------- 
D---------------------- 
A---------------------- 
E--3-3-3--------------- 

     A 
G---------------------- 
D---------------------- 
A------7--------------- 
E----5----------------- 






que quiero orbitar planetas 
    F#m 
G---------------------- 
D---------------------- 
A---------------------- 
E--2-2-2-2---2-2-2-2--- 

hasta ver uno vacio 
     G                      
G----------------------      
D----------------------      
A----------------------      
E--3-3-3-3-------------      


... pero que sea contigo 
     G........> A 
G---------------------- 
D---------------------- 
A---------------------- 
E--3-3-3-3----5-5-5-5-- 





viento 
     D 
G-------------------------------------- 
D--------------------------4------------ 
A---5-5-5-5----5-5-5-5--7--------------- 
E-------------------------------------- 

amarranos 
     b 
G------------------------- 
D------------------------- 
A--2-2-2-2---------------- 
E------------------------- 

     G 
G---------------------- 
D---------------------- 
A---------------------- 
E--3-3-3--------------- 

     A 
G---------------------- 
D---------------------- 
A------7--------------- 
E----5----------------- 



tiempo 
     D 
G-------------------------------------- 
D--------------------------4------------ 
A---5-5-5-5----5-5-5-5--7--------------- 
E-------------------------------------- 

detente en muchos años 
      b 
G------------------------- 
D------------------------- 
A--2-2-2-2---------------- 
E------------------------- 

     G 
G---------------------- 
D---------------------- 
A---------------------- 
E--3-3-3--------------- 

     A 
G---------------------- 
D---------------------- 
A------7--------------- 
E----5----------------- 


elzavalita 
	  

Solicitar el vídeo de "Viento" - Descargar Viento mp3

No existe una video leccione para esta canción

solicitar
Aumentar uno tonoAumentar uno tono
Aumentar uno semi-tonoAumentar uno semi-tono
Disminuir uno semi-tonoDisminuir uno semi-tono
Disminuir uno tonoDisminuir uno semi-tono
140

Envie sus comentários.

0 comentários

 
LosAcordes
Buscar
auto avanzar rasgueos aumentar disminuir cambiar color esconder acordes gráficos
losacordes exhibir acordes losacordes youTube video losacordes ocultar tabs losacordes cambiar notación losacordes ir hacia arriba losacordes