Cage The Elephant

Início > Cage The E... > acordes

Halo Tablatura

Cage The Elephant

Dificultad:Ningún gradoNingún grado

por VsWorld

tuner correct add songbook print version text version salvar en e-mail
acordesukuleletablaturabajobateríaarmónicaflautacavacopiano Guitar Pro
acordes

Halo

	  

Intro Riff: 

Guitar 1: 
e|-----------------------------------------------------------------| 
B|-----------------------------------------------------------------| 
G|-----------------------------------------------------------------| 
D|-----3---5-3-0---0--------3---5-3-0---0----5-3-0-----------------| 
A|-1-1-----------3------1-1-----------3----3-----------------------| 
E|-----------------------------------------------------------------| 

Guitar 2: 
e|-----------------------------------------------------------------| 
B|-----------------------------------------------------------------| 
G|-----1-----------10-10----3-----------10-------------------------| 
D|-----3-----------8--8-----1-----------8 -------------------------| 
A|-----------------------------------------------------------------| 
E|-----------------------------------------------------------------| 

Verse: 

Guitar 1: 
e|-----------------------------------------------------------------| 
B|-----------------------------------------------------------------| 
G|-----------------------------------------------------------------| 
D|-----------------------------------------------------------------| 
A|-1-1-1-1-1-1-1-1-1-1-1-1-1-1-1-1---------------------------------| 
E|---------------------------------3-3-3-3-3-3-3-3-3-3-3-3-3-3-3-3-| x12 

Guitar 3: 
e|--------------------------------------------15-13-9-13-----------| 
B|-----------------------------------11-15-11----------------------| 
G|-----------------------------------------------------------------| 
D|-----------------------------------------------------------------| 
A|-----------------------------------------------------------------| 
E|-----------------------------------------------------------------| x2 

Pre-Chorus 

Guitar 1: 
e|-----------------------------------------------------------------| 
B|-----------------------------------------------------------------| 
G|-8-8--7-7--5-5--5-5--8-8--7-7--5-5--5-5--8-8--7-7--5-5--5-5-5-5-5| 
D|-8-8--7-7--5-5--5-5--8-8--7-7--5-5--5-5--8-8--7-7--5-5--5-5-5-5-5| 
A|-6-6--5-5--3-3--3-3--6-6--5-5--3-3--3-3--6-6--5-5--3-3--3-3-3-3-3| 
E|-----------------------------------------------------------------| 

Guitar 2: 
e|-----------------------------------------------------------------| 
B|-----------------------------------------------------------------| 
G|-----------------------------------------------------------------| 
D|-----------------------------------------------------------------| 
A|-----------------------------------------------------------------| 
E|-----------------------------------------------------------------| 

Chorus: 

Guitar 1: 
e|-----------------------------------------------------------------| 
B|-----------------------------------------------------------------| 
G|-----------------7-7-7-7-7-7-7-7-----------------7-7-7-5-5-5-3-3-| 
D|-8-8-8-8-8-8-8-8-7-7-7-7-7-7-7-7-8-8-8-8-8-8-8-8-7-7-7-5-5-5-3-3-| 
A|-8-8-8-8-8-8-8-8-5-5-5-5-5-5-5-5-8-8-8-8-8-8-8-8-5-5-5-3-3-3-1-1-| 
E|-6-6-6-6-6-6-6-6-----------------6-6-6-6-6-6-6-6-----------------| x2 

Guitar 2: 
e|-----------------------------------------------------------------| 
B|-----------------------------------------------------------------| 
G|-5/7----7/5----5/7----7-5-3----5/7----12/10----10/12/7----5-3----| 
D|-----------------------------------------------------------------| 
A|-----------------------------------------------------------------| 
E|-----------------------------------------------------------------| 

Guitar 3: 
e|-----------------------------------------------------------------| 
B|-----------------------------------------------------------------| 
G|-1-1-1-1-1-1-1-1-7-7-7-7-7-7-7-7-1-1-1-1-1-1-1-1-8-8-8-6-6-6-5-5-| 
D|-x-x-x-x-x-x-x-x-x-x-x-x-x-x-x-x-x-x-x-x-x-x-x-x-x-x-x-x-x-x-x-x-| 
A|-3-3-3-3-3-3-3-3-5-5-5-5-5-5-5-5-3-3-3-3-3-3-3-3-6-6-6-4-4-4-3-3-| 
E|-----------------------------------------------------------------| x2 

Verse: 

Guitar 1: 
e|-----------------------------------------------------------------| 
B|-----------------------------------------------------------------| 
G|-----------------------------------------------------------------| 
D|-----------------------------------------------------------------| 
A|-1-1-1-1-1-1-1-1-1-1-1-1-1-1-1-1---------------------------------| 
E|---------------------------------3-3-3-3-3-3-3-3-3-3-3-3-3-3-3-3-| x12 

Guitar 3: 
e|--------------------------------------------15-13-9-13-----------| 
B|-----------------------------------11-15-11----------------------| 
G|-----------------------------------------------------------------| 
D|-----------------------------------------------------------------| 
A|-----------------------------------------------------------------| 
E|-----------------------------------------------------------------| x8 

Pre-Chorus  


Guitar 1: 
e|-----------------------------------------------------------------| 
B|-----------------------------------------------------------------| 
G|-8-8--7-7--5-5--5-5--8-8--7-7--5-5--5-5--8-8--7-7--5-5--5-5-5-5-5| 
D|-8-8--7-7--5-5--5-5--8-8--7-7--5-5--5-5--8-8--7-7--5-5--5-5-5-5-5| 
A|-6-6--5-5--3-3--3-3--6-6--5-5--3-3--3-3--6-6--5-5--3-3--3-3-3-3-3| 
E|-----------------------------------------------------------------| 

Guitar 2: 
e|-----------------------------------------------------------------| 
B|-----------------------------------------------------------------| 
G|-----------------------------------------------------------------| 
D|-----------------------------------------------------------------| 
A|-----------------------------------------------------------------| 
E|-----------------------------------------------------------------| 

Chorus: 

Guitar 1: 
e|-----------------------------------------------------------------| 
B|-----------------------------------------------------------------| 
G|-----------------7-7-7-7-7-7-7-7-----------------7-7-7-5-5-5-3-3-| 
D|-8-8-8-8-8-8-8-8-7-7-7-7-7-7-7-7-8-8-8-8-8-8-8-8-7-7-7-5-5-5-3-3-| 
A|-8-8-8-8-8-8-8-8-5-5-5-5-5-5-5-5-8-8-8-8-8-8-8-8-5-5-5-3-3-3-1-1-| 
E|-6-6-6-6-6-6-6-6-----------------6-6-6-6-6-6-6-6-----------------| x2 

Guitar 2: 
e|-----------------------------------------------------------------| 
B|-----------------------------------------------------------------| 
G|-5/7----7/5----5/7----7-5-3----5/7----12/10----10/12/7----3/5-3--| 
D|-----------------------------------------------------------------| 
A|-----------------------------------------------------------------| 
E|-----------------------------------------------------------------| 

Guitar 3: 
e|-----------------------------------------------------------------| 
B|-----------------------------------------------------------------| 
G|-1-1-1-1-1-1-1-1-7-7-7-7-7-7-7-7-1-1-1-1-1-1-1-1-8-8-8-6-6-6-5-5-| 
D|-x-x-x-x-x-x-x-x-x-x-x-x-x-x-x-x-x-x-x-x-x-x-x-x-x-x-x-x-x-x-x-x-| 
A|-3-3-3-3-3-3-3-3-5-5-5-5-5-5-5-5-3-3-3-3-3-3-3-3-6-6-6-4-4-4-3-3-| 
E|-----------------------------------------------------------------| x2 

Bridge: 

Guitar 1: 
e|-----------------------------------------------------------------| 
B|-----------------------------------------------------------------| 
G|-----------------------------------------------------------------| 
D|----------5-3-0---0-------------5-3-0---0----5-3-0---------------| 
A|1-1-1-1-1-------3-----1-1-1-1-1-------3----3---------------------| 
E|-----------------------------------------------------------------| 

Guitar 2: 
e|-----------------------------------------------------------------| 
B|-----------------------------------------------------------------| 
G|--------1---------10-10-------3-----------10---------------------| 
D|--------3---------8--8--------1-----------8 ---------------------| 
A|-----------------------------------------------------------------| 
E|-----------------------------------------------------------------| 

Guitar 1: 
e|-----------------------------------------------------------------| 
B|-----------------------------------------------------------------| 
G|-3-3-3-3-3-3-3-3-3-3-3-3-3-3-3-3-2-2-2-2-2-2-2-2-2-2-2-2-2-2-2-2-| 
D|-x-x-x-x-x-x-x-x-x-x-x-x-x-x-x-x-0-0-0-0-0-0-0-0-0-0-0-0-0-0-0-0-| 
A|-1-1-1-1-1-1-1-1-1-1-1-1-1-1-1-1---------------------------------| 
E|-----------------------------------------------------------------| x2 

Guitar 2: 
e|-----------------------------------------------------------------| 
B|-----------------------------------------------------------------| 
G|-----------------------------------------------------------------| 
D|-------------------------------------------------------------1-0-| 
A|-----------------------------------------------------------------| 
E|-----------------------------------------------------------------| 

Outro: 

Guitar 1: 
e|-----------------------------------------------------------------| 
B|-----------------------------------------------------------------| 
G|-----------------7-7-7-7-7-7-7-7-----------------7-7-7-5-5-5-3-3-| 
D|-8-8-8-8-8-8-8-8-7-7-7-7-7-7-7-7-8-8-8-8-8-8-8-8-7-7-7-5-5-5-3-3-| 
A|-8-8-8-8-8-8-8-8-5-5-5-5-5-5-5-5-8-8-8-8-8-8-8-8-5-5-5-3-3-3-1-1-| 
E|-6-6-6-6-6-6-6-6-----------------6-6-6-6-6-6-6-6-----------------| x2 

Guitar 2: 
e|-----------------------------------------------------------------| 
B|-----------------------------------------------------------------| 
G|-5/7----7/5----5/7----7-5-3----5/7----12/10----10/12/7----3/5-3--| 
D|-----------------------------------------------------------------| 
A|-----------------------------------------------------------------| 
E|-----------------------------------------------------------------| 

Guitar 3: 
e|-----------------------------------------------------------------| 
B|-----------------------------------------------------------------| 
G|-1-1-1-1-1-1-1-1-7-7-7-7-7-7-7-7-1-1-1-1-1-1-1-1-8-8-8-6-6-6-5-5-| 
D|-x-x-x-x-x-x-x-x-x-x-x-x-x-x-x-x-x-x-x-x-x-x-x-x-x-x-x-x-x-x-x-x-| 
A|-3-3-3-3-3-3-3-3-5-5-5-5-5-5-5-5-3-3-3-3-3-3-3-3-6-6-6-4-4-4-3-3-| 
E|-----------------------------------------------------------------| x2 

End Note: 

Guitar 1 & 3: 
e|-----------------------------------------------------------------| 
B|-----------------------------------------------------------------| 
G|-3---------------------------------------------------------------| 
D|-x--(Let Ring)---------------------------------------------------| 
A|-1---------------------------------------------------------------| 
E|-----------------------------------------------------------------| 



Lyrics: 

Every time I get away you 
find a way to reel me back in. (aah) 
Tell me that you love me 
hold me tight so we can always be friends. (aah) 
I swear 
I've said it before, and I say it again! (aah) 
Every time I get away you 
find a way to pull me back in. (aah) 

Why does it take so long? 
Why does it feel so wrong? 
Why does it take so lo-oo-ong? 

Knew I, couldn't help myself 
I had to lay low. 
So I, couldn't help myself 
I lost my halo. 

Take me by the hand and 
still remember all the good times we had. (aah) 
I remember how you took my favourite knife 
and sticked under my skin. (aah) 
I swear 
I've said it before, and I say it again! (aah) 
Every time I get away you 
find a way back under my skin. 

Why does it take so long? 
Why does it feel so wrong? 

Knew I, couldn't help myself 
I had to lay low. 
So I, couldn't help myself 
I lost my halo. 

All my life 
With a skeleton. 
I had to let go. 

So I, couldn't help myself 
I lost my halo. 
I lost my halo 
I lost my halo 
	  

No existe una video leccione para esta canción

request
LosAcordes
Buscar
auto avanzar rasgueos aumentar disminuir cambiar color esconder acordes gráficos
losacordes exhibir acordes losacordes youTube video losacordes ocultar tabs losacordes ir hacia arriba losacordes