Boss AC

Início > Boss AC > acordes

Hip Hop Tablatura

Boss AC

Dificultad:Ningún gradoNingún grado

por arilopes_7

tuner correct add songbook print version text version salvar en e-mail
acordesukuleletablaturabajobateríaarmónicaflautacavacopiano Guitar Pro
acordes

Hip Hop

	  e|-------------------| 
a|-------------------| 
d|-------------------| 
g|-------------------| 
b|1---3-4-3-1--------| 
e|-------------------| 
 
e|-------------------| 
a|-------------------| 
d|-------------------| 
g|-------------------| 
b|1---3-4-3-1--------| 
e|-------------------| 
 
e|-------------------| 
a|-------------------| 
d|-------------------| 
g|-------------------| 
b|-------------------| 
e|1---3-4-3-1--------| 
 
e|-------------------| 
a|-------------------| 
d|-------------------| 
g|-------------------| 
b|-------------------| 
e|1---3-4-3-1--------| 

	  

No existe una video leccione para esta canción

request
LosAcordes
Buscar
auto avanzar rasgueos aumentar disminuir cambiar color esconder acordes gráficos
losacordes exhibir acordes losacordes youTube video losacordes ocultar tabs losacordes ir hacia arriba losacordes