A B C D E F G H I J K L M N O P Q R S T U V X Y Z 0-9
Black Sabbath

Início > Black Sabb... > acordes

Black Sabbath

(Iron Man)

Dificultad:PrincipiantePrincipiante

por werdna

tuner corregir añadir para songbook version para impresion version de texto version rtf e-mail
acordestablaturabajobateríaarmónicaflautacavacopiano Guitar Pro
acordes

(Iron Man)

	  Hello everybody, rock'n good news. I'm tabbing Iron Man. 
 
We'll start this off with, yes, it is in standard tuning. 
 
My names Andrew, and here we go. 
   ( I hope that this could be even better played than 
     the original) my email address is 
      faceless_shapeless@hotmail.com ) 
_________________________________________________________ 
b= half bend 
B= full bend 
^b= pre bend 
r=release bend 
p= pull off 
h= hammer on 
/= slide down 
\= slide up 
~= vibrate 
 
Intro 
 
              | (this part do 3 times) 
e|----------------------------------------------| 
B|----------------------------------------------| 
G|----------------------------------------------| 
D|-------------5-8-8\10-10-13/12\13/12\13/12\13-| 
A|-------------3-6-6\-8--8-11/10\11/10\11/10\11-| 
E|^B1-^B1-^B1-----------------------------------| 
     r   r   r 
 
 
                |Verse (4 times) 
e|-----------------------------------------------| 
B|-----------------------------------------------| 
G|-----------------------------------------------| 
D|-12-8-8\10-10--------------6-5-6-5-6-5---------| 
A|-10-6-6\-8-8--3~-6~-6\8-8~-------------6-6\8-8~| 
E|-----------------------------------------------| 
                Has he lost his mind -> 
(all the way untill)  why should we even care 
 
 
(Chorus I am guessing) 
 
Chorus 1 (2 times) 
e|------------------------------------------------| 
B|------------------------------------------------| 
G|------------------------------------------------| 
D|-10------------------6--------------------------| 
A|--8------------------8--------------------------| 
E|------------------------------------------------| 
   Nobody wants him 
He just stares at the world 
 
Bridge 1 
e|-----------------------------------------| 
B|-----------------------------------------| 
G|-----------------------------------------| 
D|-------1---------------------------------| 
A|-3-3-3---3-2--1-1-1--0-1-1-2p1-1-1-------| 
E|--------------------1--------------------| 
 
  Back into the groove(4 times) 
e|--------------------------------------------| 
B|--------------------------------------------| 
G|--------------------------------------------| 
D|-5-8-8\10-10-13/12\13/12\13/12\13-12-8\10-10| 
A|-3-6-6\-8--8-11/10\11/10\11/10\11-10-6\-8--8| 
E|--------------------------------------------|  
 
 
 
  Verse 2 (4 times) 
e|----------------------------------| 
B|----------------------------------| 
G|----------------------------------| 
D|--------------6-5-6-5-6-5---------| 
A|-3~-6~-6\8-8~-------------6-6\8-8~| 
E|----------------------------------| 
  He was turned to steel -> 
 (untill) kills all the people he once saved 
 
 
 Chorus 2 (2 times) 
e|----------------------------------------------| 
B|----------------------------------------------| 
G|----------------------------------------------| 
D|-10----------------8--------------------------| 
A|--8----------------6--------------------------| 
E|----------------------------------------------| 
   Nobody wants him 
They just turn their heads 
 
  Bridge 2 
e|----------------------------------------| 
B|----------------------------------------| 
G|---------------3-4-5--------------3-4-5-| 
D|-5-5-----3-4-5--------5-5----3-4-5------| 
A|-3-3-3-6--------------3-3-3-6-----------| 
E|----------------------------------------| 
 
 
 Chorus 3 (4 times) 
e|----------------------------------------| 
B|----------------------------------------| 
G|----------------------------------------| 
D|-10-------------------8-----------------| 
A|--8-------------------6-----------------| 
E|----------------------------------------| 
  Planning his vengence 
  That he will soon unfold 
  Nobody helps him 
  Now he has his revenge 
 
Bridge 2 repeat(I'm assuming I've labled these right) 
 
e|----------------------| 
B|----------------------| 
G|--------------3-4-5---| 
D|-5-5----3-4-5---------| -> solo 
A|-3-3-3-6--------------| 
E|----------------------| 
 
 
(no , no solo for you, but I'll help you make your own) 
e|----------------------------------------| 
B|--6-----6------6-----6------------------| 
G|-5--8-5---8--5---8-5---8-----8-10b-8----| 
D|-------------------------8\10-------10--| 
A|----------------------------------------| 
E|----------------------------------------| 
 
e|-------------------------------------------| 
B|-------------------------------------------| 
G|-------------------------------------------| 
D|-3-1---------------------------------------| 
A|-----3-1-3~-6b-3~--------------6-8-----6-8-| 
E|------------------6-3-6-8~-6-8-----6-8-----| 
 
e|----------------------------------------|  Keep it 
B|----------------------------------------| going don't 
G|-8P5------------------------------------| let me down 
D|-----8P5-8\10-8-------------------------| 
A|----------------------------------------| 
E|----------------------------------------| 
 
  back into the groove...again ...(4 times) 
e|--------------------------------------------| 
B|--------------------------------------------| 
G|--------------------------------------------| 
D|-5-8-8\10-10-13/12\13/12\13/12\13-12-8\10-10| 
A|-3-6-6\-8--8-11/10\11/10\11/10\11-10-6\-8--8| 
E|--------------------------------------------| 
 
  (4 times) 
e|------------------------| 
B|------------------------| 
G|--------------3-4-5-----| 
D|-5-5----3-4-5-----------| 
A|-3-3-3-6----------------| 
E|------------------------| 
  Heavy bolts of steel -> 
 (untill) Iron man lives again 
 
  ( I give up figuring what these are) 
e|-----------------------------------------| 
B|-----------------------------------------| 
G|-----------------------------------------| 
D|-------1---------------------------------| 
A|-3-3-3---3-2--1-1-1--0-1-1-2p1-1-1-------| 
E|--------------------1--------------------| 
 
... now, solo again and end it already. 

	  

Solicitar el vídeo de "(Iron Man)" - Descargar (Iron Man) mp3

No existe una video leccione para esta canción

solicitar
140

Envie sus comentários.

1 comentários

asdf123321asdf123321
hace 1079 años atrás
rock on!!!!!!!!!!!!!!!!!!!!!!!!!!!!!!!!!!!!!!!!!!!!!!!!!!!!!!!!!!!!!!
 
LosAcordes
Buscar
auto avanzar rasgueos aumentar disminuir cambiar color esconder acordes gráficos
losacordes exhibir acordes losacordes youTube video losacordes ocultar tabs losacordes cambiar notación losacordes ir hacia arriba losacordes