Bersuit Vergarabat

Início > Bersuit Ve... > acordes

Mi caramelo Tablatura

Bersuit Vergarabat

Dificultad:ExpertoExperto

por visitendmnovas

tuner correct add songbook print version text version salvar en e-mail
acordesukuleletablaturabajobateríaarmónicaflautacavacopiano Guitar Pro
acordes

Mi caramelo

	  INTRO 
 
e|-----------------|-------------0---| 
B|-5-3-1-0-3-----3-|-2---2---1-------| 
G|*------------0---|---0---0---0---0*| 
D|*----------0-----|-1--------------*| 
A|-3-2-0---2-------|---------0-------| 
E|-------3---------|-----------------| 
   1 + 2 + 3 + 4 +   1 + 2 + 3 + 4 + 
 
e -----------------|-------------3---|> 
B -5-3-1-0-3-----3-|-2-----2-1-----1-|> 
G -------------0---|-----0-----0-----|> 
D -----------0-----|-1-1-------------|> 
A -3-2-0---2-------|---------0-------|> 
E -------3---------|-----------------|> 
   1 + 2 + 3 + 4 +   1 + 2 + 3 + 4 + 
 
e|-3---3---3---3---|-2-----2---------|| 
B|---1---1-------1-|-----1-----------|| 
G|-----------2-----|---2-------------|| 
D|---------0-------|-0---------------|| 
A|(0)--------------|-----------------|| 
E|-----------------|-----------------|| 
   1 + 2 + 3 + 4 +   1 + 2 + 3 + 4 + 
 
 
Verso 1: 
 
e|-----------------|-----------------| 
B|-----0-------0---|-----0-------0---| 
G|---0---0---0---0-|---0---0---0---0-| 
D|---------3-------|-2-------1-------| 
A|-----------------|-----------------| 
E|-3---------------|-----------------| 
 Que linda que estás, sos un caramelo, 
 
e -----------------|-----3---3---2---|> 
B -------0-2-----2-|-1-----1---------|> 
G -----0-------0---|---0-------2---2-|> 
D ---2-------2-----|---------0-------|> 
A ---------0-------|-3---------------|> 
E -0---------------|-----------------|> 
  te veo en el recreo y me vuelvo loco 
 
e|-----------------|--0---0--------------| 
B|-0-----0-1---3---|----------4---4------| 
G|-----0-----0---0-|----0---0---0---0----| 
D|---0-------------|---------------------| 
A|---------0---2---|--3-------3----------| 
E|-3---------------|---------------------| 
todas las cosas que me gustan, tienen tu cara, 
 
e -----------------|-----3-------2---|> 
B -3---3---2---2---|-1-----1---------|> 
G ---0---0---0---0-|---0-------2---2-|> 
D -----------------|---------0-------|> 
A -2-------1-------|-0---------------|> 
E -----------------|-----------------|> 
 y espero los asaltos, así juego a la botellita 
 
e|-----------------|-----------------| 
B|-----0-------0---|-----0-------0---| 
G|---0---0---0---0-|---0---0---0---0-| 
D|---------3-------|-2-------1-------| 
A|-----------------|-----------------| 
E|-3---------------|-----------------| 
  con vos... 
e -----------------|-----------------|| 
B -----0-------0---|-----0-3-----3---|| 
G ---------0-------|---0-------0-----|| 
D ---0---0---0---0-|-0-------4-------|| 
A -----------------|------5----------|| 
E -3---------------|-----------------|| 
  mi bomboncito. 
 
Verso 2: 
 
e|-----------------|--------0----------| 
B|-0---0---1---3---|--5---5---4---4----| 
G|---0---0---0---0-|----0-------0---0--| 
D|-----------------|-------------------| 
A|---------0---2---|--3-------3--------| 
E|-3---------------|-------------------| 
 Que excitante que estás, tendrías que saberlo, 
 
e -----------------|-----3---3---2---|> 
B -3---3---2---2---|-1-----1---------|> 
G ---0---0---0---0-|---0-------2---2-|> 
D -----------------|---------0-------|> 
A -2-------1-------|-0---------------|> 
E -----------------|-----------------|> 
   esa cola es la manzana mas buscada, 
 
e|-----------------|-----------------| 
B|-----0---1---3---|-5---5---4---4---| 
G|---0---0---0---0-|---0---0---0---0-| 
D|-----------------|-----------------| 
A|---------0---2---|-3-------3-------| 
E|-3---------------|-----------------| 
  y esos senos el alimento de mi creación, 
 
e -----------------|-----0---2---2---|> 
B -3---3---2---2---|-1---------------|> 
G ---0---0---0---0-|---0---0---2---2-|> 
D -----------------|-----------------|> 
A -2-------1-------|-0-------0-------|> 
E -----------------|-----------------|> 
 quisiera arrancarte un día y morirme en un telo 
 
e|-----------------|-----------------| 
B|-0-------0-------|-1-------1-------| 
G|-----0-------0---|-----0-------0---| 
D|---0---0---0---0-|---2---2---2---2-| 
A|-----------------|-3---------------| 
E|-3---------------|-----------------| 
   con vos...        o quizás en un auto..... 
 
e -----------------|-----------------|| 
B ---------0-------|---------3-------|| 
G -----0-------0---|-----2-------2---|| 
D ---2---2---2---2-|---0---0---0---0-|| 
A -----------------|-----------------|| 
E -0---------------|-3---------------|| 
 
 
Verso 3: 
 
e|-----------3-3---|------0-------0----| 
B|-0---------0-0---|------1-------1----| 
G|-----0-----0-0---|------0-----0-0----| 
D|---0---0---0-0---|----2-2-2---2-2-2--| 
A|-----------2-2---|--3---3---3---3-3--| 
E|-3-------3-3-3---|-------------------| 
  Han pasado cinco años, asumiste las cosas, 
 
e -----0------0-0---|--3-------2-2-----|> 
B -----0------2-2---|--1-----1-1-1-1---|> 
G -----0------2-2---|--0---0---2-----2-|> 
D -----2------2-2---|--2-0-----0-------|> 
A ---2-2-2-0--0-0---|--3---------------|> 
E -0---0------------|------------------|> 
 hace tiempo que estoy buscando mi verdadero yo, 
 
e|-----3-----------|-3-------3-3-----| 
B|-----0-----3-----|-5-------4-4-----| 
G|-----0-----0---0-|-5-5---5-5-5-----| 
D|-----0-----0-0---|-5-5---5-5-5-----| 
A|-2---2-2-2-2-2-2-|-3---3-3-3-3-----| 
E|-3-3-3---3-------|-----------------| 
 hay una especie de simbiosis, lo dijo mi psicóloga, 
 
e -----------------|-----0---2-------|> 
B -3---3---2---2---|-1-----------1---|> 
G -0---0---0---0---|---0---0---2---2-|> 
D -0---0-0-0-0---0-|---------0-------|> 
A -2---2-2-1-------|-3---------------|> 
E -----------------|-----------------|> 
 haría bien a la terapia 
 
e|-------------3---|-----------------| 
B|-0-----0---------|-----1-------1---| 
G|-----0-----0---0-|-----------------| 
D|---0-----0-------|---2---2---2-----| 
A|-----------------|-3-------3-----3-| 
E|-3---------------|-----------------| 
 alejarme un tiempo... 
 
e -----3---3---3---|-----3---2---2---|| 
B -----------------|-----------------|| 
G -------0---0---0-|---0---0---2---2-|| 
D ---2-------------|-2-------0-------|| 
A -----------------|-----------------|| 
E -0---------------|-----------------|| 
 unos setenta años............................... 
 
Verso 4: 
 
e|-----------------|-0-------2-------| 
B|-0-------1---3---|-----------------| 
G|-----0-----0---0-|-----------------| 
D|---0---0---------|---------1-------| 
A|---------0---2---|-3---------------| 
E|-3---------------|-----------------| 
  Como estás querida tengo esposa e hijos, 
 
e -3---3---2-------|-0-------0-------|> 
B -------------3---|-----2-------4---|> 
G -----------0---0-|---0---0---0---0-|> 
D -2---2---0-------|-----------------|> 
A -----------------|-4-------3-------|> 
E -----------------|-----------------|> 
 de vez en cuando hablo con ella y hasta hago el amor, 
 
e|-----------------|-----3---3---3-----| 
B|-3---3---2---2---|-------------------| 
G|---0---0---0---0-|---0---0---0---0---| 
D|-----------------|-------------------| 
A|-2-------1-------|-0-----------------| 
E|-----------------|-------------------| 
no es que quiera molestarte, pero me es imprescindible, 
 
e ------------------|-----------------|> 
B ------0-------0---|-------0-------3-|> 
G ----0---0---0---0-|-----0-------0---|> 
D --2-------0-------|---2-------4-----|> 
A ------------------|-4-------5-------|> 
E ------------------|-----------------|> 
 sentarme en un café, y soñar un poco... 
 
e|-----------------|-----------------| 
B|-------0-----0---|-1---1---1---1---| 
G|-----0-----0-----|-----------------| 
D|---0-----0-----0-|---2---2---2---2-| 
A|-----------------|-3---------------| 
E|-3---------------|-----------------| 
  y tal vez amarnos................................. 
 
e -----3---3---3---|-----2-------2---|> 
B -----------------|---3---3---3---3-|> 
G ---0---0---0---0-|-----------------|> 
D -----------------|-----------------|> 
A -----------------|-2-------2-------|> 
E -0---------------|-----------------|> 
 
e|-----7---7---7---|---------7-------|-5----------|| 
B|-----------------|-----5-----------|-5----------|| 
G|---5---5---5---5-|---5---5---------|-5----------|| 
D|-----------------|-4---------------|------------|| 
A|-0---------------|-----------------|------------|| 
E|-----------------|-----------------|------------|| 
 .................................................. 
 
Verso 5: 
 
e|-----------------|------------------| 
B|-0-----0-----0---|--1-----1-----1---| 
G|-----0-----0-----|------0-----0-----| 
D|---0-----0-----0-|----2-----2-------| 
A|-----------------|--3---------------| 
E|-3---------------|------------------| 
  Y ha pasado mi hora, quién robo mis años, 
 
e ------------------|-----------------|> 
B ------0-------0---|-------------3---|> 
G ----0---0---0---0-|-----0-----0---0-|> 
D --2-------0-------|---2---2-0-------|> 
A ------------------|-3---------------|> 
E ------------------|-----------------|> 
 cambio a toda esta familia por un segundo con vos 
 
e|-----------------|--0---0------------| 
B|-0-------1---3---|----------4---4----| 
G|-----0-----0---0-|----0---0---0---0--| 
D|---0---0---------|-------------------| 
A|---------0---2---|--3-------3--------| 
E|-3---------------|-------------------| 
 si te veo ahora, aunque termine en un hospicio, 
 
e ------------------|-----0-----------|> 
B -3---3---2---2----|-1-------5-3-1-0-|> 
G ---0---0---0---0--|---0---0---------|> 
D ------------------|-----------------|> 
A -2-------1--------|-0-------3-2-0---|> 
E ------------------|---------------3-|> 
 tomo una botella...y juego a la botellita 
 
e|-----------------|-----3---3-------|-2-------3--------|| 
B|-3---3---2---2---|-1-------1-------|-3-------0--------|| 
G|---0---0---0---0-|---2-----2-------|-2-------0--------|| 
D|---------1-------|-0-------0-------|-0-------0--------|| 
A|-2---------------|-----------------|---------2--------|| 
E|-----------------|-----------------|---------3--------|| 
 con vos.................. FIN 
 
 

	  

No existe una video leccione para esta canción

request
LosAcordes
Buscar
auto avanzar rasgueos aumentar disminuir cambiar color esconder acordes gráficos
losacordes exhibir acordes losacordes youTube video losacordes ocultar tabs losacordes ir hacia arriba losacordes