A B C D E F G H I J K L M N O P Q R S T U V X Y Z 0-9
Barón Rojo

Início > Barón Rojo > acordes

Barón Rojo

Siempre Estas Allí

Dificultad:ExpertoExperto

por ironmejiab

tuner corregir añadir para songbook version para impresion version de texto version rtf e-mail
acordestablaturabajobateríaarmónicaflautacavacopiano Guitar Pro
acordes

Siempre Estas Allí

	  SIEMPRE ESTAS ALLÍ 
BARÓN ROJO 
 
 
Efectos 
 
~~: vibrato. mientras mas ~ tenga, el vibrato es mas prolongado. 
. : Toca la nota y la suelte al instante para evitar que esta quede sonando. 
h : Hammer-Ons. 
p : Pull-Offs. 
b : Bends. Fuerce la cuerda hasta lograr el sonido de la nota que sigue de la b. 
r : Release. Despues de hacer un Bend regresa a la nota inicial. 
/ : Slide Abajo. 
\ : Slide Arriba. 
__ 
~~: Un vibrato en el que mueve fuerte y rápidamente la cuerda hacia arriba y abajo 
    mas de lo que lo hace en un vibrato normal. 
¡!: Lo que esta entre estos signos es bien movido, escuche bien la cancion para poder 
    cojer esta parte. 
 
 
Intro: 
 
2 Guitarras: 
 
||Guitarra 1: 
e|-------------------------------------------------------------------------------------------| 
B|-17-18--------17-18------17-18-17~~-18-17~~-18-17~~-18-15~~-20-18h20p18-17-15----17-15~~~~\| 
G|-----------19-----------------------------------------------------------------17-----------| 
D|-------19~---------19~---------------------------------------------------------------------| 
A|-------------------------------------------------------------------------------------------| 
E|-------------------------------------------------------------------------------------------| 
||Guitarra 2:                                                                                | 
e|-------------------------------------------------------------------------------------------| 
B|-8--10-----8--8-10--------8--10--8~~-10--8~~--10--8--10--------10-10h11p10-8-------8-------| 
G|-------10~~---------10~~---------------------------------10~~----------------10--9---7~~~~\| 
D|-------------------------------------------------------------------------------------------| 
A|-------------------------------------------------------------------------------------------| 
E|-------------------------------------------------------------------------------------------| 
 
||Guitarra 1: 
e|-------------------------------------------------------------------------------------------| 
B|-17-18--------17-18-----17-18-17~~-18-17~~-18-17~~-18-15~~-20-18h20p18-17-15h17p15---------| 
G|-----------19----------------------------------------------------------------------17-15-14| 
D|-------19~---------19~---------------------------------------------------------------------| 
A|-------------------------------------------------------------------------------------------| 
E|-------------------------------------------------------------------------------------------| 
||Guitara 2:                                                                                 | 
e|-------------------------------------------------------------------------------------------| 
B|-8--10-----8--8-10-------8--10--8~~-10--8~~-10--8~~-10-----11-10h11p10---------------------| 
G|-------10~~--------10~~--------------------------------10~~------------12-10h12p10--9------| 
D|--------------------------------------------------------------------------------------12-11| 
A|-------------------------------------------------------------------------------------------| 
E|-------------------------------------------------------------------------------------------| 
 
 
||Verso 1:                                                                         | 
e|------------------------1-----------------------------1---------------1----------| 
B|-------3-------3------3---3----------3-------3------3---3-----------3---3--------| 
G|-----0-------0------2--------------0-------0------2---------------2--------------| 
D|---3-------2------0----------0---3-------2------0------------0-------------------| 
A|-1-------3---------------------1-------3-----------------------3------------3--2-| 
E|---------------------------------------------------------------------------------| 
                                                Llegó el final,   cesó el clamor  la 
 
e|-----1-------------1---------------------------------------1------------0--------| 
B|---3---3---------3---3-----------3------------3----------3---3----------1-1------| 
G|-0-------------0---------------0---0--------0---0------2--------------0----------| 
D|-----------------------------3------------2----------0---------0----2----------0-| 
A|----------2----------------1---------1--3----------3--------------3----------3---| 
E|------------3-----------3--------------------------------------------------------| 
  magia se desvaneció     tus ojos siguen       fijos sobre mi.             La fría 
 
e|-----1-------------1-------------1--------------1---------------------------------| 
B|---3---3---------3---3---------3---3----------3---3------------3---------------3--| 
G|-2-------------2------------0---------------0----------------0---0-----------0---0| 
D|---------0------------------------------------------------3---------------2-------| 
A|-----------3----------3--2------------2-----------------1-----------1--3----------| 
E|-----------------------------------------3-----------3----------------------------| 
  luz de un pabellón   sobre un mar de cristales rotos    y un naufrago se ahoga en 
 
e|----------1-------------0----| 
B|--------3---3-----------1-1--| 
G|------2---------------0------| 
D|----0----------0----2--------| 
A|-3----------------3----------| 
E|-----------------------------| 
  un rincón. 
 
 F 
Y mi hogar vuelve a ser 
 C                           A#        Dm 
en cualquier lugar cualquier hotel, 
 F 
dejó atrás la ciudad 
 C                          Gm        Am 
dime tú esta noche ¿a dónde irás? 
 
 
||Verso 2: 
e|--------1-------------1-------------1--------------1------------------------------| 
B|------3---3---------3---3---------3---3----------3---3-----------3-------------3--| 
G|----2-------------2-------------0--------------0---------------0---0---------0---0| 
D|-0----------0------------------------------------------------3-------------2------| 
A|---------------3----------3--2----------2-----------------1-----------1-3---------| 
E|-------------------------------------------3------------3-------------------------| 
  La actuación me hace bibrar  y el escenario es un volcán que brama     con sonido 
 
e|----------1-------------------------1-------------1-------------1-----------------| 
B|--------3---3-------3-------3-----3---3---------3---3---------3---3------------3--| 
G|------2-----------0-------0-----2-------------0-------------0----------------0---3| 
D|---0------------3-------2-----0----------0---------------------------------3------| 
A|-3------------1-------3--------------------2------------2---------------1---------| 
E|----------------------------------------------------------3----------3------------| 
   atronador.                       Bañado por sudor y luz  te busco entre la multitud 
 
e|-------------------------1--------------0---| 
B|----------3------------3---3------------1-1-| 
G|--------0---0--------2----------------0-----| 
D|------2-----------0------------0----2-------| 
A|-1--3----------3------------------3---------| 
E|--------------------------------------------| 
  porqué yo sé que siempre estás allí. 
 
 F 
Y mi hogar vuelve a ser 
 C                           A#      Dm 
en cualquier lugar cualquier hotel, 
 F 
dejó atrás la ciudad 
 C                          Gm          Am 
dime tú esta noche ¿a dónde irás? 
 
 A#          Dm 
Descenderás al reino de la oscuridad 
 A#            Gm 
sigue buscando una escalera al cielo. 
 A#           Dm 
Dime si habrá alguien que te espere 
 A# 
o solamente mientras te duermes 
 C                        Am7 
los ojos de tus heroes te miran 
            Dm 
desde la pared. 
 
Solo: 
 
e|---------------------------------------------------------------------------------| 
B|---------------------------------------------------------------6p5-6-8~--6-5-6~~-| 
G|-/7~~~5--------------------------------------------5~---5/7~~~-------------------| 
D|--------7-5---5--5~~-------------------3------3-3/5------------------------------| 
A|------------8--------8-5~~---5p3---3-5---5~~-------------------------------------| 
E|---------------------------------5-----------------------------------------------| 
 
 
e|---------------------------------------------------------------------------------| 
B|-5h6p5---5-6-8-5~--------------------------------13p10---------------------------| 
G|-------7---------7~~~~-----10.-12.-12b14r12b14~b14------10-12-10h12p10-----------| 
D|-----------------------/12.---------------------------------------------7~~~~----| 
A|---------------------------------------------------------------------------------| 
E|---------------------------------------------------------------------------------| 
 
                                                     ¡ 
e|---------------------------------------------------|-----------------------------| 
B|-------------------------------8/10/--12/15~-/15~~\|------13p10------------------| 
G|--------------------------5/7----------------------|-12b14-----12-10h12-12b14r12-| 
D|-8-7h8p7--5---5~-----------------------------------|-----------------------------| 
A|------------8----8-7-5~~---------------------------|-----------------------------| 
E|---------------------------------------------------|-----------------------------| 
 
 
e|------------------13-------------------------------------------------------------| 
B|---------------------------------------------------------------------------------| 
G|-12p10---10-12b14----14p12\10----10~~~---------------------------------10h12p10--| 
D|-------12---------------------12-----10h12p10----10-------------10/12~---------12| 
A|----------------------------------------------12----12-------10------------------| 
E|--------------------------------------------------------10/12--------------------| 
 
 
e|------------------------------------------------13--------13---------------------| 
B|------------------------------------------------13--13-13-13-13-13----10---------| 
G|-10h12p10---10h12p10h12p10h12p10h12p10-10h12b14----b14b14b14b14b14~~-----12p10---| 
D|---------12----------------------------------------------------------------------| 
A|---------------------------------------------------------------------------------| 
E|---------------------------------------------------------------------------------| 
 
 
 
e|---------------------------------------------------------------------------------| 
B|-------13~~~-10h12p10----10.-12b14r12~-10----11~~--10h12p10---11---10h11p10------| 
G|-12p10----------------12------------------12----------------12--------------12---| 
D|---------------------------------------------------------------------------------| 
A|---------------------------------------------------------------------------------| 
E|---------------------------------------------------------------------------------| 
 
 
e|----------10---------------------------------------------------------------13----| 
B|-10-11-13----13-11-10----10h11p10----10---------------------------------------13-| 
G|----------------------12----------12----12-10----10h12p10h12p10----10-12b14~~b14-| 
D|----------------------------------------------12-----------------12--------------| 
A|---------------------------------------------------------------------------------| 
E|---------------------------------------------------------------------------------| 
 
                                                         ____       ! 
e|-----------------10----------------------------------10~~~~-------| 
B|-10-----------------13p10-13-10----10-----------------------------| 
G|----12p10-12b14~----------------12----12p10----10h12--------------| 
D|--------------------------------------------12--------------------| 
A|------------------------------------------------------------------| 
E|------------------------------------------------------------------| 
 
***Repetir Intro.*** 
 
 A#          Dm 
Descenderás al reino de la oscuridad 
 A#            Gm 
sigue buscando una escalera al cielo. 
 A#           Dm 
Dime si habrá alguien que te espere 
 A# 
o solamente mientras te duermes 
 C                        Am7 
los ojos de tus heroes te miran 
 Dm                 C 
desde la pared. 
 
 
e|--------1-------------1-------------1--------------1------------------------------| 
B|------3---3---------3---3---------3---3----------3---3-----------3-------------3--| 
G|----2-------------2-------------0--------------0---------------0---0---------0---0| 
D|-0----------0------------------------------------------------3-------------2------| 
A|---------------3----------3--2----------2-----------------1-----------1-3---------| 
E|-------------------------------------------3------------3-------------------------| 
  Volvió el clamor, no habrá final    la magia no se romperá     todo está bien 
 
e|------------1-----------1----------------------0--------0-------| 
B|----------3---3-------3---3---------3----------3--------3-------|En la nota *3* 
G|--------2-----------2-------------0---0------0---0------0-------|Se reduce el ritmo 
D|-2----0-----------0-------------2----------2------------2-------|a otro mas lento 
A|---3--------------------------3---------*3*-------------3-------|desaceleradamente, 
E|----------------------------------------------------------------|si tu estás aquí      Oh, si tu estás aquí. 
 
 
                                       ******* 
                                       **Fin** 
                                       ******* 
 

	  

Solicitar el vídeo de "Siempre Estas Allí" - Descargar Siempre Estas Allí mp3

No existe una video leccione para esta canción

solicitar
Aumentar uno tonoAumentar uno tono
Aumentar uno semi-tonoAumentar uno semi-tono
Disminuir uno semi-tonoDisminuir uno semi-tono
Disminuir uno tonoDisminuir uno semi-tono
140

Envie sus comentários.

0 comentários

 
LosAcordes
Buscar
auto avanzar rasgueos aumentar disminuir cambiar color esconder acordes gráficos
losacordes exhibir acordes losacordes youTube video losacordes ocultar tabs losacordes cambiar notación losacordes ir hacia arriba losacordes