A B C D E F G H I J K L M N O P Q R S T U V X Y Z 0-9
Avenged Sevenfold

Início > Avenged Se... > acordes

Avenged Sevenfold

Hail To The King

Dificultad:ExpertoExperto

por sabrjoao

tuner corregir añadir para songbook version para impresion version de texto version rtf e-mail
acordestablaturabajobateríaarmónicaflautacavacopiano Guitar Pro
acordes

Hail To The King

Áño: 2013 -

(Brian Haner/ Jonathan Seward/ Matthew Charles Sanders/ Zackary Baker)

	  
Guitar 1 - Synyster Gates 

intro (6x)
riff 1

 v  ^ ^  v  ^ ^  v  ^ ^  v  ^ ^  v  ^ ^  v        3x
D#|-12-0----14-0----15-0----14-0----14-0------------------------|
A#|------12------12------12------12------12-12------------------|
F#|-------------------------------------------------------------|
C#|-------------------------------------------------------------|
G#|-------------------------------------------------------------|
C#|-------------------------------------------------------------|

 v  ^ ^  v  ^ ^  v  ^ ^  v  ^ ^  v  ^ ^  v
D#|-17-0----17-0----15-0----15-0----14-0----14------------------|
A#|------15------15------15------15------15---------------------|
F#|-------------------------------------------------------------|
C#|-------------------------------------------------------------|
G#|-------------------------------------------------------------|
C#|-------------------------------------------------------------|

riff 2 (2x) 
                               3x
D#|---------------------------------|---------------------------|
A#|-5h8p5p0-5h8p5p0-5h8p5p0-3h5p3p0-|-3h5p3p0-3h5p3p0-3h5p3p0---|
F#|---------------------------------|---------------------------|
C#|---------------------------------|---------------------------|
G#|---------------------------------|---------------------------|
C#|---------------------------------|---------------------------|

D#|-------------------------------------------------------------|
A#|-3h5p3p0-----------------------------------------------------|
F#|-------------------------------------------------------------|
C#|-------------------------------------------------------------|
G#|-------------------------------------------------------------|
C#|-------------------------------------------------------------|

1ª parte (2x)
riff 3
                               2x
D#|---------------------------------|---------------------------|
A#|-5h8p5p0-5h8p5p0-3h5p3p0-3h5p3p0-|-5h8p5p0-5h8p5p0-8h10p8p0--|
F#|---------------------------------|---------------------------|
C#|---------------------------------|---------------------------|
G#|---------------------------------|---------------------------|
C#|---------------------------------|---------------------------|

D#|-------------------------------------------------------------|
A#|-8h10p8p0-3h5p3p0-3h5p3p0-3h5p3p0-3h5p3p0--------------------|
F#|-------------------------------------------------------------|
C#|-------------------------------------------------------------|
G#|-------------------------------------------------------------|
C#|-------------------------------------------------------------|

pré-refrão
riff 4
                                              4x
D#|-------------------------------------------------------------|
A#|-10h13p10p0-10h13p10p010h13p10p0-8h10p8p0--------------------|
F#|-------------------------------------------------------------|
C#|-------------------------------------------------------------|
G#|-------------------------------------------------------------|
C#|-------------------------------------------------------------|
                                               4x
D#|-------------------------------------------------------------|
A#|-12h15p12p0-12h15p12p0-12h15p12p0-10h12p10p0-----------------|
F#|-------------------------------------------------------------|
C#|-------------------------------------------------------------|
G#|-------------------------------------------------------------|
C#|-------------------------------------------------------------|

refrão (2x)
riff 5

D#|-7------7----------7------7----------------------------------|
A#|---8-10---10~~~~\----8-10---10\-7~~~~\-----------------------|
F#|-------------------------------------------------------------|
C#|-------------------------------------------------------------|
G#|-------------------------------------------------------------|
C#|-------------------------------------------------------------|

riff 6
                               3x
D#|---------------------------------|---------------------------|
A#|-5-0-0-7-0-0-8-0-0-7-0-0-5-0-----|-3-0---3-0---3-0---3-0-----|
F#|-----------------------------4-0-|-----2-----2-----2-----2---|
C#|---------------------------------|---------------------------|
G#|---------------------------------|---------------------------|
C#|---------------------------------|---------------------------|

D#|-------------------------------------------------------------|
A#|-3-0---------------------------------------------------------|
F#|-----2-0-----------------------------------------------------|
C#|-------------------------------------------------------------|
G#|-------------------------------------------------------------|
C#|-------------------------------------------------------------|

-
2ª parte

riff 3

pré-refrão - riff 4

refrão - riff 5

riff 6


solo
interlúdio
              2x                                      
D#|-----------------|-------------------------------------------|
A#|-5-8-5-0-5-8-5-0-|-7-10-7-0-7-10-7-0-4-7-4-0-4-7-4-0---------|
F#|-----------------|-------------------------------------------|
C#|-----------------|-------------------------------------------|
G#|-----------------|-------------------------------------------|
C#|-----------------|-------------------------------------------|

              2x                                      
D#|-----------------|-------------------------------------------|
A#|-5-8-5-0-5-8-5-0-|-7-10-7-0-7-10-7-0-4-7-4-0-4-7-4-0---------|
F#|-----------------|-------------------------------------------|
C#|-----------------|-------------------------------------------|
G#|-----------------|-------------------------------------------|
C#|-----------------|-------------------------------------------|

              2x
D#|-----------------|-------------------------------------------|
A#|-5-8-5-0-5-8-5-0-|-10-13-10-0-10-13-10-0-7-10-7-0-7-10-7-0---|
F#|-----------------|-------------------------------------------|
C#|-----------------|-------------------------------------------|
G#|-----------------|-------------------------------------------|
C#|-----------------|-------------------------------------------|

          2x         2x         2x         2x
D#|------------|----------|----------|----------|-7~~~~~\-------|
A#|-10-13-10-0-|-7-10-7-0-|-8-12-8-0-|-7-11-7-0-|---------------|
F#|------------|----------|----------|----------|---------------|
C#|------------|----------|----------|----------|---------------|
G#|------------|----------|----------|----------|---------------|
C#|------------|----------|----------|----------|---------------|

solo 

D#|-------------------------------------------------------------|
A#|-----------/7~--5--4~~--5-7-7/13-12~~--10~~~12-13-10~~-12-13-|
F#|-/4~~--3-4---------------------------------------------------|
C#|-------------------------------------------------------------|
G#|-------------------------------------------------------------|
C#|-------------------------------------------------------------|


D#|-11b12-12-12-12-12-12~~~~\--/11~~---12-14-11~~--12-14-14/19~~|
A#|-------------------------------------------------------------|
F#|-------------------------------------------------------------|
C#|-------------------------------------------------------------|
G#|-------------------------------------------------------------|
C#|-------------------------------------------------------------|


D#|-17---------/19--20--17--19--20--17--19~~~~------------------|
A#|----20-17\---------------------------------------------------|
F#|-------------------------------------------------------------|
C#|-------------------------------------------------------------|
G#|-------------------------------------------------------------|
C#|-------------------------------------------------------------|


D#|----------------------12-14-15~~~--14-12-11-14-12-11---------|
A#|-------------------12--------------------------------12------|
F#|-----------9-11-12--------------------------------------12-11|
C#|---------9---------------------------------------------------|
G#|-/7-9-10-----------------------------------------------------|
C#|-------------------------------------------------------------|


D#|-------------------------------------------------------------|
A#|-------------------------------------------------------------|
F#|-14-12-11----------------------------------------------------|
C#|----------14-13~~\-------------------------------------------|
G#|-------------------------------------------------------------|
C#|-------------------------------------------------------------|


D#|--------12-17-17-12-------12-16-16-12-------12-15-15-12------|
A#|-----13----------------13----------------13----------------13|
G#|-/14----------------14----------------14----------------14---|
C#|-------------------------------------------------------------|
G#|-------------------------------------------------------------|
C#|-------------------------------------------------------------|


D#|-12-14-12----14-15-14-12-------------------------------------|
A#|----------12-------------12----------------------------------|
F#|----------------------------12-11-9-9-12-11-9----------------|
C#|----------------------------------------------9--------------|
G#|------------------------------------------------10-9-7~~~~~--|
C#|-------------------------------------------------------------|


D#|-----------------------------7-8-11-12-7---------------------|
A#|----------------------7-8-10-------------8-7-----------------|
F#|--------------------8------------------------9---------------|
C#|--------------7-8-9----------------------------9-------------|
G#|----------6-9------------------------------------10-9-7~~~~--|
C#|/9-10-8-9----------------------------------------------------|


D#|-0---3--2-0--------------------------------------------------|
A#|------------4-1-0--------------------------------------------|
F#|------------------2-1p0--------------------------------------|
C#|------------------------2-1p0--------------------------------|
G#|------------------------------2-0ba2----5ha.ba3--------------|
C#|-------------------------------------------------------------|


3ª parte

riff 1 (2x)

riff 1 a
                                                    3x
D#|-12-0----14-0----15-0----14-0----14-0------------------------|
A#|------12------12------12------12------12-12------------------|
F#|-------------------------------------------------------------|
C#|-------------------------------------------------------------|
G#|-------------------------------------------------------------|
C#|-------------------------------------------------------------|

D#|-17-0----17-0----17-0----17-0----17-0------------------------|
A#|------15------15------15------15------15-15------------------|
F#|-------------------------------------------------------------|
C#|-------------------------------------------------------------|
G#|-------------------------------------------------------------|
C#|-------------------------------------------------------------|

D#-17-0----17-0----15-0----15-0----14-0----14------------------|
A#------15------15------15------15------15---------------------|
F#-------------------------------------------------------------|
C#-------------------------------------------------------------|
G#-------------------------------------------------------------|
C#-------------------------------------------------------------|



refrão - riff 5 (2x)

final

D#|---------------------------------|---------------------------|
A#|-5-0-0-7-0-0-8-0-0-7-0-0-5-0-----|-5-0-0-7-0-0-8-0-0-7-0-0-7-|
F#|-----------------------------4-0-|---------------------------|
C#|---------------------------------|---------------------------|
G#|---------------------------------|---------------------------|
C#|---------------------------------|---------------------------|


D#|-------------------------------------------------------------|
A#|-0-3~~~~~----------------------------------------------------|
F#|-------------------------------------------------------------|
C#|-------------------------------------------------------------|
G#|-------------------------------------------------------------|
C#|-------------------------------------------------------------|



guitarra 1 extra

refrão

D#|-------------------------------------------------------------|
A#|-------------------------------------------------------------|
F#|-12-9-11-12-11~~~~\--12-9-11-12-11---------------------------|
C#|-----------------------------------12~~~~\-------------------|
G#|-------------------------------------------------------------|
C#|-------------------------------------------------------------|

Guitar 2 - Zacky Vengeance 

intro (6x)
riff 1

a
 E5  F#5  G5             E5  F#5  G5
D#|-------------------------------------------------------------|
A#|-------------------------------------------------------------|
F#|-------------------------------------------------------------|
C#|-2----4----5-------------2----4----5-------------------------|
G#|-2----4----5-------------2----4----5-------------------------|
C#|-2----4----5-------------2----4----5-------------------------|

b
 E5  F#5  G5                E5  F#5  G5
D#|-------------------------------------------------------------|
A#|-------------------------------------------------------------|
F#|-------------------------------------------------------------|
C#|-2----4----5----x-x----------2----4----5----x-x--------------|
G#|-2----4----5----x-x----------2----4----5----x-x--------------|
C#|-2----4----5----x-x----------2----4----5----x-x--------------|

c
 E5  F#5  G5                          3x
D#|-------------------------------------------------------------|
A#|-------------------------------------------------------------|
F#|-------------------------------------------------------------|
C#|-2----4----5----x-x----x-x----x-x----------------------------|
G#|-2----4----5----x-x----x-x----x-x----------------------------|
C#|-2----4----5----x-x----x-x----x-x----------------------------|

d
 E5  F#5  G5
D#|-------------------------------------------------------------|
A#|-------------------------------------------------------------|
F#|-------------------------------------------------------------|
C#|-2----4----5----x--0-----------------------------------------|
G#|-2----4----5----x--0-----------------------------------------|
C#|-2----4----5----x--0--------5-4-0----------------------------|


riff 2
 E5          G5      2x
 

1ª parte
riff 3 (2x)
 E5                                   G5
D#|-------------------------------------------------------------|
A#|-------------------------------------------------------------|
F#|-------------------------------------------------------------|
C#|-------------------------------------------------------------|
G#|-2----2--2--2--2--2--2--2--2--2--2--2--5---------------------|
C#|-2----2--2--2--2--2--2--2--2--2--2--2--5---0-----------------|
      p.m.........................

 E5                    D5
D#|-------------------------------------------------------------|
A#|-------------------------------------------------------------|
F#|-------------------------------------------------------------|
C#|-------------------------------------------------------------|
G#|-2----2--2--2--2--2--2--0------------------------------------|
C#|-2----2--2--2--2--2--2--0--------5-4-0-----------------------|


pré-refrão
 A5      C5    A5       C5 G5  A5      C5  A5       C5 G5
D#|-------------------------------------------------------------|
A#|-------------------------------------------------------------|
F#|-------------------------------------------------------------|
C#|-2--2--2-5------2--2-2-2-5-----2--2-2-2-5---2--2-2-2-5-------|
G#|-0--0--0-3------0--0-0-0-3-5---0--0-0-0-3---0--0-0-0-3-5-----|
C#|---------------------------5---------------------------5-----|

 B5      D5     B5      D5 A5 B5       D5   B5      D5 A5
D#|-------------------------------------------------------------|
A#|-------------------------------------------------------------|
F#|-------------------------------------------------------------|
C#|-4--4--4-7------4--4-4-4-7-----4--4-4-4-7---4--4-4-4-7-------|
G#|-2--2--2-5------2--2-2-2-5-7---2--2-2-2-5---2--2-2-2-5-7-----|
C#|---------------------------7---------------------------7-----|


refrão
 E5       D5         C5       D5               2x
D#|-------------------------------------------------------------|
A#|-------------------------------------------------------------|
F#|---------------------5--------7------------------------------|
C#|-2------2-0----------5--------7------------------------------|
G#|-2------2-0----------3----0-3-5------------------------------|
C#|-2----0-2-0----5-4-0---------------5-4-0---------------------|

riff 1
c
 E5  F#5  G5                          
D#|-------------------------------------------------------------|
A#|-------------------------------------------------------------|
F#|-------------------------------------------------------------|
C#|-2----4----5----x-x----x-x----x-x----------------------------|
G#|-2----4----5----x-x----x-x----x-x----------------------------|
C#|-2----4----5----x-x----x-x----x-x----------------------------|

d
 E5  F#5  G5
D#|-------------------------------------------------------------|
A#|-------------------------------------------------------------|
F#|-------------------------------------------------------------|
C#|-2----4----5----x--0-----------------------------------------|
G#|-2----4----5----x--0-----------------------------------------|
C#|-2----4----5----x--0--------5-4-0----------------------------|

2ª parte

riff 3
pré refrão
refrão
riff 1 "c" & "d"

interlúdio

 E5   D5 B5 E5   D5 B5 E5   A5 F#5 G5 F#5 B5
D#|-------------------------------------------------------------|
A#|-------------------------------------------------------------|
F#|---------4----------4-------2-----------4--------------------|
C#|-2----0--4--2----0--4--2----2--4--5--4--4--------------------|
G#|-2----0--2--2----0--2--2----0--5--5--4--2--------------------|
C#|-2----0-----2----0-----2-------4--5--4-----------------------|

 E5              B5              A5              E5
D#|-------------------------------------------------------------|
A#|-------------------------------------------------------------|
F#|-------------------------------------------------------------|
C#|-----------------4-4-4-4-4-4-4-4-2-2-2-2-2-2-2-2-------------|
G#|-2-2-2-2-2-2-2-2-2-2-2-2-2-2-2-2-0-0-0-0-0-0-0-0-2-2-2-2-2-2-|
C#|-2-2-2-2-2-2-2-2---------------------------------2-2-2-2-2-2-|

     B5              E5              B5
D#|-------------------------------------------------------------|
A#|-------------------------------------------------------------|
F#|-------------------------------------------------------------|
C#|-----4-4-4-4-4-4-4-4-----------------4-4-4-4-4-4-4-4-4-------|
G#|-2-2-2-2-2-2-2-2-2-2-2-2-2-2-2-2-2-2-2-2-2-2-2-2-2-2-2-------|
C#|-2-2-----------------2-2-2-2-2-2-2-2--------------------5-4-0|

solo
 E5              B5              A5              E5
D#|-------------------------------------------------------------|
A#|-------------------------------------------------------------|
F#|-------------------------------------------------------------|
C#|-----------------4-4-4-4-4-4-4-4-2-2-2-2-2-2-2-2-------------|
G#|-2-2-2-2-2-2-2-2-2-2-2-2-2-2-2-2-0-0-0-0-0-0-0-0-2-2-2-2-2-2-|
C#|-2-2-2-2-2-2-2-2---------------------------------2-2-2-2-2-2-|

     B5              E5              B5/D#  F#5   B5    E5
D#|-------------------------------------------------------------|
A#|-------------------------------------------------------------|
F#|--------------------------------------------------4----------|
C#|-----4-4-4-4-4-4-4-4-----------------1------4-----4-----2----|
G#|-2-2-2-2-2-2-2-2-2-2-2-2-2-2-2-2-2-2-2------4-----2-----2----|
C#|-2-2-----------------2-2-2-2-2-2-2-2-1------4-----------2----|

riff 1
c (3x)
 E5  F#5  G5                          
D#|-------------------------------------------------------------|
A#|-------------------------------------------------------------|
F#|-------------------------------------------------------------|
C#|-2----4----5----x-x----x-x----x-x----------------------------|
G#|-2----4----5----x-x----x-x----x-x----------------------------|
C#|-2----4----5----x-x----x-x----x-x----------------------------|

e
 E5  F#5  G5
D#|-------------------------------------------------------------|
A#|-------------------------------------------------------------|
F#|-------------------------------------------------------------|
C#|-2----4----5----x--0-----------------------------------------|
G#|-2----4----5----x--0----0-0-0-0-0-0-0-0----------------------|
C#|-2----4----5----x--0----0-0-0-0-0-0-0-0----------------------|

refrão (4x)

riff 1 - final
 E5  F#5  G5                         E5  F#5  G5       D5   
D#|-------------------------------------------------------------|
A#|-------------------------------------------------------------|
F#|-------------------------------------------------------------|
C#|-2----4----5----x-x----x-x----x-x----2----4----5----x--0-----|
G#|-2----4----5----x-x----x-x----x-x----2----4----5----x--0-----|
C#|-2----4----5----x-x----x-x----x-x----2----4----5----x--0-----|
|
	  

Solicitar el vídeo de "Hail To The King" - Descargar Hail To The King mp3

No existe una video leccione para esta canción

solicitar
Aumentar uno tonoAumentar uno tono
Aumentar uno semi-tonoAumentar uno semi-tono
Disminuir uno semi-tonoDisminuir uno semi-tono
Disminuir uno tonoDisminuir uno semi-tono
140

Envie sus comentários.

0 comentários

 
LosAcordes
Buscar
auto avanzar rasgueos aumentar disminuir cambiar color esconder acordes gráficos
losacordes exhibir acordes losacordes youTube video losacordes ocultar tabs losacordes cambiar notación losacordes ir hacia arriba losacordes