Astor Piazzola

Início > Astor Piaz... > acordes

Libertango Tablatura

Astor Piazzola

Dificultad:ExpertoExperto

por renejunior

tuner correct add songbook print version text version salvar en e-mail
acordesukuleletablaturabajobateríaarmónicaflautacavacopiano Guitar Pro
acordes

Libertango

(Astor Piazzolla)

Tono:  Am Más
Libertango Key EmEm
Libertango Key FmFm
Libertango Key F#mF#m
Libertango Key GmGm(Disminuir uno tono)
Libertango Key G#mG#m(Disminuir uno semi-tono)
Libertango Key AmAm(tono original)
Libertango Key A#mA#m(Aumentar uno semi-tono)
Libertango Key BmBm(Aumentar uno tono)
Libertango Key CmCm
Libertango Key C#mC#m
Libertango Key DmDm
Libertango Key D#mD#m
	  Libertango para dos guitarras, arriba se pueden ver los acordes 
en notacion americana, mas abajo los especifico. 

   Am 
E||-----------------------------------8--5--| 
B||-----5--6--5-----------------6--5--------| 
G||-----5-----------------------------------| 
D||-----------------------------------------| 
A||-----------------------------------------| 
E||--5--------5-----------------------5-----| 

                              B7 
|--------------8--5--------|--------------------7-----| 
|-----5--6--5--------5--6--|-----4--5--4--5--4-----7--| 
|--------------------------|--------------------------| 
|--------------------------|--------------------------| 
|--------------------------|--------------------------| 
|--5--------5--------5-----|--5--------5--------5-----| 

                              Dm6 
|--------------7-----------|--------------------7-----| 
|-----4--5--4-----7--4--5--|-----3--5--3--5--3-----6--| 
|--------------------------|--------------------------| 
|--------------------------|--------------------------| 
|--------------------------|--------------------------| 
|--5--------5--------5-----|--5--------5--------5-----| 


                              Am 
|--------------5-----------|--------------------5-----| 
|-----3--5--3-----6--3--5--|-----------------------5--| 
|--------------------------|-----5--7--5--7--5--------| 
|--------------------------|--------------------------| 
|--------------------------|--------------------------| 
|--5--------5--------5-----|--5--------5--------5-----| 


                              C6 
|--------------5-----------|--------------------5--0--| 
|-----------------5--------|-----1--3--1--3--1--------| 
|-----5--7--5--------5--7--|--------------------------| 
|--------------------------|--------------------------| 
|--------------------------|--------------------------| 
|--5--------5--------5-----|--3--------3--------3-----| 


                              F#dim 
|--------------5--0--------|--------------------5-----| 
|-----1--3--1--------1--3--|-----1--3--1--3--1-----4--| 
|--------------------------|--------------------------| 
|--------------------------|--------------------------| 
|--------------------------|--------------------------| 
|--3--------3--------3-----|--2--------2--------2-----| 


                              Fdim 
|--------------5-----------|--------------------4-----| 
|-----1--3--1-----4--1--3--|-----0--1--0--1--0-----3--| 
|--------------------------|--------------------------| 
|--------------------------|--------------------------| 
|--------------------------|--------------------------| 
|--2--------2--------2-----|--1--------1--------1-----| 


                              E7 
|--------------4-----------|--------------------4-----| 
|-----0--1--0-----3--0--1--|-----0--1--0--1--0-----3--| 
|--------------------------|--------------------------| 
|--------------------------|--------------------------| 
|--------------------------|--------------------------| 
|--1--------1--------1-----|--0--------0--------0-----| 

                              Am 
|--------------4-----------|--------------------8--5--| 
|-----0--1--0-----3--0--1--|-----5--6--5--6--5--------| 
|--------------------------|-----5--------------------| 
|--------------------------|--------------------------| 
|--------------------------|--------------------------| 
|--0--------0--------0-----|--5--------5--------5-----| 

                              B7 
|--------------8--5--------|--------------------7-----| 
|-----5--6--5--------5--6--|-----4--5--4--5--4-----7--| 
|--------------------------|--------------------------| 
|--------------------------|--------------------------| 
|--------------------------|--------------------------| 
|--5--------5--------5-----|--5--------5--------5-----| 


                              Dm6 
--------------7-----------|--------------------7-----| 
-----4--5--4-----7--4--5--|-----3--5--3--5--3-----6--| 
--------------------------|--------------------------| 
--------------------------|--------------------------| 
--------------------------|--------------------------| 
--5--------5--------5-----|--5--------5--------5-----| 

                              Am 
--------------5-----------|--------------------5-----| 
-----3--5--3-----6--3--5--|-----------------------5--| 
--------------------------|-----5--7--5--7--5--------| 
--------------------------|--------------------------| 
--------------------------|--------------------------| 
--5--------5--------5-----|--5--------5--------5-----| 

                              C6 
--------------5-----------|--------------------5--0--| 
-----------------5--------|-----1--3--1--3--1--------| 
-----5--7--5--------5--7--|--------------------------| 
--------------------------|--------------------------| 
--------------------------|--------------------------| 
--5--------5--------5-----|--3--------3--------3-----| 

                              F#dim 
--------------5--0--------|--------------------5-----| 
-----1--3--1--------1--3--|-----1--3--1--3--1-----4--| 
--------------------------|--------------------------| 
--------------------------|--------------------------| 
--------------------------|--------------------------| 
--3--------3--------3-----|--2--------2--------2-----| 

                              Fdim 
--------------5-----------|--------------------4-----| 
-----1--3--1-----4--1--3--|-----0--1--0--1--0-----3--| 
--------------------------|--------------------------| 
--------------------------|--------------------------| 
--------------------------|--------------------------| 
--2--------2--------2-----|--1--------1--------1-----| 

                              E7 
--------------4-----------|--------------------4-----| 
-----0--1--0-----3--0--1--|-----0--1--0--1--0-----3--| 
--------------------------|--------------------------| 
--------------------------|--------------------------| 
--------------------------|--------------------------| 
--1--------1--------1-----|--0--------0--------0-----| 

                              Am 
--------------4-----------|--------------------8--5--| 
-----0--1--0-----3--0--1--|-----5--6--5--6--5--------| 
--------------------------|-----5--------------------| 
--------------------------|--------------------------| 
--------------------------|--------------------------| 
--0--------0--------0-----|--5--------5--------5-----| 

                              B7 
--------------8--5--------|--------------------7-----| 
-----5--6--5--------5--6--|-----4--5--4--5--4-----7--| 
--------------------------|--------------------------| 
--------------------------|--------------------------| 
--------------------------|--------------------------| 
--5--------5--------5-----|--5--------5--------5-----| 

                              Dm6 
--------------7-----------|--------------------7-----| 
-----4--5--4-----7--4--5--|-----3--5--3--5--3-----6--| 
--------------------------|--------------------------| 
--------------------------|--------------------------| 
--------------------------|--------------------------| 
--5--------5--------5-----|--5--------5--------5-----| 

                              Am 
--------------5-----------|--------------------5-----| 
-----3--5--3-----6--3--5--|-----------------------5--| 
--------------------------|-----5--7--5--7--5--------| 
--------------------------|--------------------------| 
--------------------------|--------------------------| 
--5--------5--------5-----|--5--------5--------5-----| 

                              C6 
--------------5-----------|--------------------5--0--| 
-----------------5--------|-----1--3--1--3--1--------| 
-----5--7--5--------5--7--|--------------------------| 
--------------------------|--------------------------| 
--------------------------|--------------------------| 
--5--------5--------5-----|--3--------3--------3-----| 


                              F#dim 
--------------5--0--------|--------------------5-----| 
-----1--3--1--------1--3--|-----1--3--1--3--1-----4--| 
--------------------------|--------------------------| 
--------------------------|--------------------------| 
--------------------------|--------------------------| 
--3--------3--------3-----|--2--------2--------2-----| 

                              Fdim 
--------------5-----------|--------------------4-----| 
-----1--3--1-----4--1--3--|-----0--1--0--1--0-----3--| 
--------------------------|--------------------------| 
--------------------------|--------------------------| 
--------------------------|--------------------------| 
--2--------2--------2-----|--1--------1--------1-----| 

                              B7 
--------------4-----------|--------------------4-----| 
-----0--1--0-----3--0--1--|-----0--1--0--1--0-----3--| 
--------------------------|--------------------------| 
--------------------------|--------------------------| 
--------------------------|--------------------------| 
--1--------1--------1-----|--0--------0--------0-----| 

                              G6add9+ 
--------------4-----------|--------------------------| 
-----0--1--0-----3--0--1--|--------------------------| 
--------------------------|--------------7-----0-----| 
--------------------------|-----5--7--5-----8-----7--| 
--------------------------|--------------------------| 
--0--------0--------0-----|--7--------7--------0-----| 

                              A 
--------------------------|--------------------------| 
--------------2-----------|--------------------6-----| 
--------2--------3--------|-----------------------7--| 
-----5-----5--------7--5--|-----7--8--7--8--7--------| 
--------------------------|--5--------5--------5-----| 
--5--------5--------5-----|--------------------------| 

                              F6 
--------------------------|--------------------------| 
--------------6--------0--|--------------------------| 
--------3--------7--------|--------------5--1--------| 
-----7-----7--------7-----|-----3--5--3--------3--5--| 
--5--------5--------5-----|--------------------------| 
--------------------------|--4--------4--------4-----| 

                              Fm 
--------------------------|--0--------0--------0-----| 
--------------0-----------|--------1--------1--------| 
--------0--------1--0-----|-----0--------0--------0--| 
-----3-----3-----------3--|--------------------------| 
--------------------------|--3--------3--------------| 
--3--------3--------3-----|--------------------------| 

                              Gm 
--0--------0--------0-----|-----0-----0-----0--8--5--| 
--------0--------0--------|--------6-----6-----------| 
-----1--------1--------1--|-----5--------------------| 
--------------------------|--------------------------| 
--2--------2--------------|--------------------------| 
--------------------------|--5--------5--------5-----| 

                              G7 
-----0-----0--8--5--0-----|--------0-----0-----7-----| 
--------6--------------6--|-----0-----4-----4-----7--| 
-----5--------------------|-----8--------------------| 
--------------------------|--------------------------| 
--------------------------|--------------------------| 
--5--------5--------5-----|--5--------5--------5-----| 

                              C 
--------0-----7--------0--|--------0-----0-----7-----| 
-----0-----4-----7--4-----|-----0-----3-----3-----6--| 
-----8--------------------|-----7--------------------| 
--------------------------|--------------------------| 
--------------------------|--------------------------| 
--5--------5--------5-----|--5--------5--------5-----| 

                              E 
--------0-----7--------0--|--------------------5-----| 
-----0-----3-----6--------|-----------------------5--| 
-----7--------------7-----|-----5--7--5--7--5--------| 
--------------------------|-----7--------------------| 
--------------------------|--------------------------| 
--5--------5--------5-----|--5--------5--------5-----| 


                              Am 
--------------5-----------||----------------------------8--5--| 
-----------------5-----5--||-------------5--6--5--6--5--------| 
-----5--7--5--------5-----||*------------5--------------------| 
-----7--------------------||*---------------------------------| 
--------------------------||----------------------------------| 
--5--------5--------5-----||---5---------------5--------5-----| 


                              B7 
--------------8--5--------|--------------------7-----| 
-----5--6--5--------5--6--|-----4--5--4--5--4-----7--| 
--------------------------|--------------------------| 
--------------------------|--------------------------| 
--------------------------|--------------------------| 
--5--------5--------5-----|--5--------5--------5-----| 

                             Dm6 
--------------7-----------|--------------------7-----| 
-----4--5--4-----7--4--5--|-----3--5--3--5--3-----6--| 
--------------------------|--------------------------| 
--------------------------|--------------------------| 
--------------------------|--------------------------| 
--5--------5--------5-----|--5--------5--------5-----| 

                              Am 
--------------5-----------|--------------------5-----| 
-----3--5--3-----6--3--5--|-----------------------5--| 
--------------------------|-----5--7--5--7--5--------| 
--------------------------|--------------------------| 
--------------------------|--------------------------| 
--5--------5--------5-----|--5--------5--------5-----| 

                              C6 
--------------5-----------|--------------------5--0--| 
-----------------5--------|-----1--3--1--3--1--------| 
-----5--7--5--------5--7--|--------------------------| 
--------------------------|--------------------------| 
--------------------------|--------------------------| 
--5--------5--------5-----|--3--------3--------3-----| 


                              F#dim 
--------------5--0--------|--------------------5-----| 
-----1--3--1--------1--3--|-----1--3--1--3--1-----4--| 
--------------------------|--------------------------| 
--------------------------|--------------------------| 
--------------------------|--------------------------| 
--3--------3--------3-----|--2--------2--------2-----| 


                              Fdim 
--------------5-----------|--------------------4-----| 
-----1--3--1-----4--1--3--|-----0--1--0--1--0-----3--| 
--------------------------|--------------------------| 
--------------------------|--------------------------| 
--------------------------|--------------------------| 
--2--------2--------2-----|--1--------1--------1-----| 

                              E7 
--------------4-----------|--------------------4-----| 
-----0--1--0-----3--0--1--|-----0--1--0--1--0-----3--| 
--------------------------|--------------------------| 
--------------------------|--------------------------| 
--------------------------|--------------------------| 
--1--------1--------1-----|--0--------0--------0-----| 



--------------4------------|| 
-----0--1--0-----3--0--1---|| 
--------------------------*|| 
--------------------------*|| 
---------------------------|| 
--0--------0--------0------|| 



	  

No existe una video leccione para esta canción

request
Aumentar uno tonoAumentar uno tono
Aumentar uno semi-tonoAumentar uno semi-tono
Disminuir uno semi-tonoDisminuir uno semi-tono
Disminuir uno tonoDisminuir uno semi-tono
LosAcordes
Buscar
auto avanzar rasgueos aumentar disminuir cambiar color esconder acordes gráficos
losacordes exhibir acordes losacordes youTube video losacordes ocultar tabs losacordes ir hacia arriba losacordes