A B C D E F G H I J K L M N O P Q R S T U V X Y Z 0-9
Astor Piazzola

Início > Astor Piaz... > acordes

Astor Piazzola

La Cumparsita

Dificultad:ExpertoExperto

por renejunior

tuner corregir añadir para songbook version para impresion version de texto version rtf e-mail
acordestablaturabajobateríaarmónicaflautacavacopiano Guitar Pro
acordes

La Cumparsita

	  Am G  F  E                     Am 
e|-5--3--1-----------0-0/1/0---0----0------0-0/1/0---0-| 
B|-5--3--1----3-0------------4--------1------------4---| 
G|-5--4--2--------1---------------------2--------------| 
D|-7--5--3---------------------------------------------| 
A|-7--5--3------------------------0-------0------------| 
E|-5--3--1--0-------0----------------------------------| 

   E                      Am 
e|-----------0-0/1/0---0----0-------0-0/1/0---0--| 
B|---3-0-------------4--------1-------------4----| 
G|-------1----------------------2----------------| 
D|-----------------------------------------------| 
A|------------------------0-------0--------------| 
E|-0-------0-------------------------------------| 

   Dm                   Am 
e|---1---5--4/5-4/5--1--0--0--------5-5-4-5--7--8~--| 
B|---3---6--5/6-5/6--3--1----1----------------------| 
G|---2---7--6/7-6/7--2--2------2----5-5-4-5--7--9~--| 
D|-0---0----------------2---------------------------| 
A|----------------------0--------0------------------| 
E|--------------------------------------------------| 

   E                     Am  G# Am  G  F 
e|------------0--------------4--5---3--1--| 
B|---3-0--------3/1-0--------4--5---3--1--| 
G|-------1------------1--2~--5--5---4--2--| 
D|---------------------------6--7---5--3--| 
A|---------------------------6--7---5--3--| 
E|-0--------0----------------4--5---3--1--| 

   E 
e|-------------------------------------------------| 
B|-----0-----0-----0-----0-----0-----0-----0-----0-| 
G|---1-----1-----1-----1-----1-----1-----1-----1---| 
D|-------------------0-----------------------------| 
A|-------------2-----------3-----2-----0-----------| 
E|-0-----4-----------------------------------4-----| 

   Am 
e|-------------------------------------------------| 
B|-----1-----1-----1-----1-----1-----1-----1-----1-| 
G|---2-----2-----2-----2-----2-----2-----2-----2---| 
D|-------------2-----------------------------------| 
A|-0-----3-----------3-----0-----------------------| 
E|-------------------------------3-----1-----0-----| 

   E 
e|-------------------------------------------------| 
B|-----0-----0-----0-----0-----0-----0-----0-----0-| 
G|---1-----1-----1-----1-----1-----1-----1-----1---| 
D|-------------------0-----------------------------| 
A|-------------2-----------3-----2-----0-----------| 
E|-0-----4-----------------------------------4-----| 

   Am 
e|-------------------------------------------------| 
B|-----1-----1-----1-----1-----1-----1-----1-----1-| 
G|---2-----2-----2-----2-----2-----2-----2-----2---| 
D|-------------2-----------------------------0-----| 
A|-0-----3-----------3-----0-----2-----4-----------| 
E|-------------------------------------------------| 

   Dm 
e|-----1-----1-----1-----1-----1-----1-----1-----1--| 
B|---3-----3-----3-----3-----3-----3-----3-----3----| 
G|-------------2-----------------------2------------| 
D|-0-----3-----------3-----0-----3-----------3------| 
A|--------------------------------------------------| 
E|--------------------------------------------------| 

   Am 
e|-----0-----0-----0-----0-----0-----0-----0-----0-| 
B|---1-----1-----1-----1-----1-----1-----1-----1---| 
G|-------------------------------------------------| 
D|-------------2-----------------------------------| 
A|-0-----3-----------3-----0-----------------------| 
E|-------------------------------3-----1-----0-----| 

   E 
e|-------------------------------------------------| 
B|-----0-----0-----0-----0-----0-----0-----0-----0-| 
G|---1-----1-----1-----1-----1-----1-----1-----1---| 
D|-------------------0-----------------------------| 
A|-------------2-----------3-----2-----0-----------| 
E|-0-----4-----------------------------------4-----| 

   Am         Am 
e|-0-------0--5--| 
B|-1-------5--5--| 
G|-2-------7--5--| 
D|-2-------6--7--| 
A|-0-------7--7--| 
E|------------5--|
	  

Solicitar el vídeo de "La Cumparsita" - Descargar La Cumparsita mp3

No existe una video leccione para esta canción

solicitar
Aumentar uno tonoAumentar uno tono
Aumentar uno semi-tonoAumentar uno semi-tono
Disminuir uno semi-tonoDisminuir uno semi-tono
Disminuir uno tonoDisminuir uno semi-tono
140

Envie sus comentários.

0 comentários

 
LosAcordes
Buscar
auto avanzar rasgueos aumentar disminuir cambiar color esconder acordes gráficos
losacordes exhibir acordes losacordes youTube video losacordes ocultar tabs losacordes cambiar notación losacordes ir hacia arriba losacordes