A B C D E F G H I J K L M N O P Q R S T U V X Y Z 0-9
Antologia

Início > Antologia > acordes

Antologia

Nostalgia

Dificultad:ExpertoExperto

por terr_schmitz

tuner corregir añadir para songbook version para impresion version de texto version rtf e-mail
acordestablaturabajobateríaarmónicaflautacavacopiano Guitar Pro
acordes

Nostalgia

	  Que tal a todos,como pueden ver esta cancion les envio con 
mucho esfuerso para toda la gente que le gusta la guitarra.Aqui va: 

      Como si el viento adivinara:           de la nostalgia que me embarga 
1)---2*------|--------------------4-5-4-2-1-2------------------------| 
2)---2*------|-------------------------------------------------------| 
3)---2*------|--------------------4-6-4-2-1-2------------------------| 
4)---4*------|-------------------------------------------------------| 
5)---4*------|-------------------------------------------------------| 
6)---2*------|-------------------------------------------------------| 

1)----------------------------------|----------------------------------| 
2)-2h3-------------2-2h3------------|----------------------------------| 
3)----4-4-4h2-----------4-4-4h2-----|2-2h4------------2-2h4------------| 
4)-----------4-2-4-------------4-2-4|-----3-3-3h2-2-4------3-3-3h2-2-4-| 
5)----------------------------------|------------5----------------5----| 

1)----------| 
2)----------| 
3)----------| 
4)----------| 
5)--0-1-2---| 

los acordes son: Bm F#m D 

Son tus recuerdos y están 
matándole a mi corazón, 
lo peor es que no puedo olvidarte 
en la distancia te se esperar 
y vuelve mi llanto a caer 
abrazando esta mi, soledad 
mi vida no tiene razón 
sin ti yo no se adonde vooy. 

1)-14-------15-|12—-17-12-15-14-12-14|-10--9-10-14-12-11-12-9-| 
2)-----14-15---|---------------------|---12-------------------| 
3)---15--------|--12-----------------|------------------------| 

1)-9----9-12-10-9-10-|-10-9---------9---| 
2)----11-------------|-----12-11--11-12-| 
3)--11---------------|----------11------| 

intermedio:  Bm F#m D 

Como si el viento adivinara 
de la nostalgia que me embarga, 
solo y frente a este mundo 
solo y con todos tus recuerdos 
no me resigno a perder tu amor 
es mas me niego a olvidarte 
sabes no quiero perderte 
te amo mil veces, te amo. 

1)-14-14-12----14-13-14-14-12-11-12-10-| 1)-----10-14-15-14-15-12-| 
2)---------14--------------------------| 2)---12------------------| 
3)-----------11------------------------| 3)-11--------------------| 
                 Bis 
1)--- -9-12-15-14-15-14|------10-14-15-14-15-12-| 
2)---11----------------|---12-------------------| 
3)-11------------------|-11---------------------| 

1)-14h15-14-12-10-12-10-9------| 
2)-----------------------11-12-| 

Como si el viento adivinara 
de la nostalgia que me embarga, 
solo y frente a este mundo 
solo y con todos tus recuerdos 
no me resigno a perder tu amor 
es mas me niego a olvidarte 
sabes no quiero perderte 
te amo mil veces, te amo. 

1)-------------------|---4*---------------| 
2)—7-5----------2----|---3*---------------| 
3)----6-7-4-3-4--3-4-|---2*---------------| 
4)-------------------|---4*---------------| 
5)-------------------|---2*---------------| 
6)-------------------|---2*---------------| 

      Bueno desde aqui de la ciudad imperia mando saludos a la gente 
de puerto mazuco, punkiri, mazuco y de mi barrio 

      Espero que les guste cualquier duda de la cancion o si quieren 
conocer mas sobre mi y mi guitarra escrivanme en msn. 

                                 cusco-peru 
                                    2007
	  

Solicitar el vídeo de "Nostalgia" - Descargar Nostalgia mp3

No existe una video leccione para esta canción

solicitar
Aumentar uno tonoAumentar uno tono
Aumentar uno semi-tonoAumentar uno semi-tono
Disminuir uno semi-tonoDisminuir uno semi-tono
Disminuir uno tonoDisminuir uno semi-tono
140

Envie sus comentários.

0 comentários

 
LosAcordes
Buscar
auto avanzar rasgueos aumentar disminuir cambiar color esconder acordes gráficos
losacordes exhibir acordes losacordes youTube video losacordes ocultar tabs losacordes cambiar notación losacordes ir hacia arriba losacordes