Angeles del Infierno

Início > Angeles de... > acordes

Dando Por Detrás Tablatura

Angeles del Infierno

Dificultad:ExpertoExperto

por victborges

tuner correct add songbook print version text version salvar en e-mail
acordesukuleletablaturabajobateríaarmónicaflautacavacopiano Guitar Pro
acordes

Dando Por Detrás

(robert alvarez)

	  Autor: robert alvarez 


     
   Riff 1  
-::--0--0--0--0-------------------------------------::-  
-::--5--5--5--5-------------------------------------::-  
-::--4--4--4--4-------------------------------------::-  
-::--2--2--2--2--------------5--4--2-2-0-2----------::-  
-::-----------------2-\-3---------------------------::-  
-::-----------------------------------------0--0----::-  

---0--0--0--0-------------------------------------::-  
---5--5--5--5---------------------------3---------::-  
---4--4--4--4---------------------------2----4----::-  
---2--2--2--2------------5--4--2--2-----0----4----::-  
-----------------2-\-3-----------------------2----::-  
--------------------------------------------------::-  
   

-::------------------------------------------------------------------------  
-::------------------------------------------------------------------------  
-::-2--2------------------2-2-------------------5-----5-----5-----5---2--2-  
-::-2--2------------------2-2-------------------5-----5-----5-----5---2--2-  
-::-0--0--0--0-0--0-0--0-------0--0-0--0-0--0------0-----0-----0------0--0-  
-::------------------------------------------------------------------------  
 Ahora si              ahora si  
 ok  amigo           no seas tan duro  
------------------------------------------------------------------------------------  
------------------------------------------------------------------------------------  
------------------2--2-------------------2--2-------------------5-----5-----5-----5-  
------------------2--2-------------------2--2-------------------5-----5-----5-----5-  
-0--0-0--0-0--0----------0--0-0--0-0--0---------0--0-0--0-0--0-----0-----0-----0----  
------------------------------------------------------------------------------------  
            cuando hay tranquilo por hay  
            y dejame hacerme un puro  
-------------------------------------------------------------------  
-------------------------------------------------------------------  
-2--2------------------5--5------------------5--5------------------  
-2--2------------------5--5------------------5--5------------------  
-0--0--0--0-0--0-0--0--3--3--3--3-3--3-3--3--3--3--3--3-3--3-3--3--  
-------------------------------------------------------------------  
                    brillantes ojos en la oscuridad  
                   no se si algun dia fuieste un tipo normal  

----------------------------------------------------  
-4-----4-----4-----4--------------------------------  
-3--5--3--5--3--5--3---5--5------------------5-/----  
----5-----5-----5------5--5------------------5-/----  
-----------------------3--3--3--3-3--3-3--3--3-/----  
----------------------------------------------------  
   

-------------------------------------------------------------------------  
-------------------------------------------------------------------------  
-2--2------------------2-2-------------------5-----5-----5-----5---2--2--  
-2--2------------------2-2-------------------5-----5-----5-----5---2--2--  
-0--0--0--0-0--0-0--0-------0--0-0--0-0--0------0-----0-----0------0--0--  
-------------------------------------------------------------------------  
estan atentos para protegerme  
un numero eres del imperio de la ley  

---------------------------------------------------------------------  
------------------8---------6----------------------------------------  
------------------7---------5------2--2------------------2--2--------  
------------------5---------3------2--2------------------2--2--------  
-0--0-0--0-0--0--------------------0--0--0--0-0--0-0--0--0--0--------  
---------------------------------------------------------------------  
              solo les falta poder ladrar son serviciales si vistes bien  
              el poderoso esclavo mas fiel y su dinero guardas muy bien  
-------------------------::-  
--8-----------6----------::-  
--7-----------5----------::-  
--5-----------3----------::-  
-------------------------::-  
-------------------------::-  
nosotros les pagamos y ellos hasta el final  

ESTRIBILLO:  

-::-------------------------------------------------------------------  
-::-------------------------------------------------------------------  
-::-7--7------------------7--7------------------5--5--5--5---7--7-----  
-::-7--7------------------7--7------------------5--5--5--5---7--7-----  
-::---5--5--5-5--5-5--5--5--5--5--5-5--5-5--5--3--3--3--3---5--5------  
-::-------------------------------------------------------------------  
te siguen dando  te siguen dando              dando por detras  
   

-----------------------------------------------------------------------------  
----------------------------------------------------------------------------  
--------------7--7------------------7--7------------------5--5--5--5--7--7---  
--------------7--7------------------7--7------------------5--5--5--5--7--7--  
-5--5-5--5-5--5--5--5--5-5--5-5--5--5--5--5--5-5--5-5--5--3--3--3--3--5--5--  
-----------------------------------------------------------------------------  
     te siguen dando    te siguen dando                  dando por detras
	  

No existe una video leccione para esta canción

request
LosAcordes
Buscar
auto avanzar rasgueos aumentar disminuir cambiar color esconder acordes gráficos
losacordes exhibir acordes losacordes youTube video losacordes ocultar tabs losacordes ir hacia arriba losacordes