André Sardet

Início > André Sard... > acordes

Foi feitiço Tablatura

André Sardet

Dificultad:PrincipiantePrincipiante

por dianna_17

tuner correct add songbook print version text version salvar en e-mail
acordesukuleletablaturabajobateríaarmónicaflautacavacopiano Guitar Pro
acordes

Foi feitiço

	  Introduçao 
 
p= pull of 
 
    D           D7        G7             
e --2-----2-----2-----2-------------0---0---------------- 
b ------3---3-------2---2---------0---0--------3p0-2----- 
g ----2-------2---2-------2-----2------------0----------- 
d --0-----------0-------------0-------------------------- 
a ----------------------------------------0-------------- 
e --------------------------3---------------------------- 
 
1º parte 
 
e --2-----2-----2-----2---------------------------------2-------------0-------------0-------------- 
b ------3---3-------2---2---------0-------------0-0-2-3---3---3-----0---------0-----------3p0-2---- 
g ----2-------2---2-------2-----2---2---2-----2-------------2-----2---------2---2-------0---------- 
d --0-----------0-------------0-------0-----0-----------------------------0-------0---------------- 
a ------------------------------------------------------------------------------------0------------ 
e --------------------------3-------------3---------------------3-------3-------------------------- 
 
a 2º parte é igual a 1º. 
nao sei se estão bem mas e o mais parecido que consegui! 

	  

No existe una video leccione para esta canción

request
Aumentar uno tonoAumentar uno tono
Aumentar uno semi-tonoAumentar uno semi-tono
Disminuir uno semi-tonoDisminuir uno semi-tono
Disminuir uno tonoDisminuir uno semi-tono
LosAcordes
Buscar
auto avanzar rasgueos aumentar disminuir cambiar color esconder acordes gráficos
losacordes exhibir acordes losacordes youTube video losacordes ocultar tabs losacordes ir hacia arriba losacordes