Alvaro Carrillo

Início > Alvaro Car... > acordes

El Andariego Tablatura

Alvaro Carrillo

Dificultad:IntermedioIntermedio

por jessgomes

tuner correct add songbook print version text version salvar en e-mail
acordesukuleletablaturabajobateríaarmónicaflautacavacopiano Guitar Pro
acordes

El Andariego

(Alvaro Carrillo)

	  
Esta parte se repite dos veces 
e--------------------------------------- 
B-----------5-8-7-8-7-8-7-8-8-10-10-8-6- 
G---------6---9-8-9-8-9-8-9-9--9—-9-9-7- 
D---7-6-7------------------------------- 
A--------------------------------------- 
E--------------------------------------- 


e-----------5—9—-8--9—-8—-9—-9—-11-11-9—-7- 
B---------6---11-10-11-10-11-11-11-11-11-9- 
G---7-6-7---------------------------------- 
D------------------------------------------ 
A------------------------------------------ 
E------------------------------------------ 


Esta parte es la mas difícil y va rapído     esta parte va mas rapido          
e-------5-6-5-------5----------------------- -------5-10- 
B---8-8-----8-6-6-8---6-8-5-5-6-8-5-6-5----- -----6---10- 
G---------------------------------------6-7- -6-7-----10- 
D------------------------------------------- ---------10- 
A------------------------------------------- ------------ 
E------------------------------------------- ------------ 


Esta parte intentala hacer lo mas rapido que puedas 
e------9-12----9-12----9-12----9-12----9-12-----10-13----10-13- 
B---10------10------10------10------10-------10-------10------- 
G-------------------------------------------------------------- 
D-------------------------------------------------------------- 
A-------------------------------------------------------------- 
E-------------------------------------------------------------- 


----10-13----10-13----10-13----12-15----12-15----12-15----12-15- 
-10-------10-------10-------13-------13-------13-------13------- 
---------------------------------------------------------------- 
---------------------------------------------------------------- 
---------------------------------------------------------------- 
---------------------------------------------------------------- 


----12-15----12-17-17-17-17- 
-13-------13----18-18-18-18- 
---------------------------- 
---------------------------- 
---------------------------- 
---------------------------- 

Esta parte es la mas difícil y va rapído     esta parte va mas rapido          
e-------5-6-5-------5----------------------- -------5-10-E 
B---8-8-----8-6-6-8---6-8-5-5-6-8-5-6-5----- -----6---10-l 
G---------------------------------------6-7- -6-7-----10- 
D------------------------------------------- ---------10-F 
A------------------------------------------- ------------i 
E------------------------------------------- ------------n 


esta cancion se la dedico a toda mi familia
	  

No existe una video leccione para esta canción

request
LosAcordes
Buscar
auto avanzar rasgueos aumentar disminuir cambiar color esconder acordes gráficos
losacordes exhibir acordes losacordes youTube video losacordes ocultar tabs losacordes ir hacia arriba losacordes