A B C D E F G H I J K L M N O P Q R S T U V X Y Z 0-9
Resorte

Início > Resorte > acordes

Resorte

Ruido

Dificultad:Ningún gradoNingún grado

tuner corregir añadir para songbook version para impresion version de texto version rtf e-mail
acordestablaturabajobateríaarmónicaflautacavacopiano Guitar Pro
acordes

Ruido

	  

band: resorte
song: ruido
tabbed by: luis p?z


   intro
h|X--X--|


  /-----7-------\
h|x-x-x-x-x-x-xx--|x-x-x-x-x|
s|----o-------o---|----o---o|
b|o-o--o-o--oo----|o-o--oo--|

      -------7 secs---------

              /-----11-------\
c|-----------|----------------|----------------x-|
h|------x-x--|x-x-x-x-x-x-x-x-|x-x-x-x-x---------|
s|o-o-f----oo|----o--o-o--o--o|----o--o--f-f---o-|
b|------o-o--|o-o-------oo----|o-o-----o-----o---|



  /------3-------\
h|x---x---x---x---|x------------------|
s|--o---o---f---o-|--f-f-----------ff-|
b|oo-ooo--o---o---|oo----o-o-o-oo-o---|

  /----4---------\ /------2-------\
h|x-x-x-x-x-x-x-x-|x-x-x-x-x-x-xx--|x-x-x-x-x-x-xxx-|
s|----o-------o---|----o-------o---|----o-------o--o|
b|o-o--o--o-oo----|o-o--o--o-oo----|o-o--o--o-oo----|

h|x-x-x-x-x-x-x-x-x-x-x|
s|----o-------o----o--o|
b|o-o--o--o-oo----o--o-|

                   /------2-------\
h|x-x-x-x-x-x-xx--|x-x-x-x-x-x-xx--|x-x-x-x-x|----------------|
s|----o-------o---|----o-------o---|----o---o|--------------o-|
b|o-o--o--o-oo----|o-o--o--o-oo----|o-o--oo--|----------------|



                   /------2-------\
h|x---x---x---x---|x---x---x---x---|x-------------x-|x-x-x-x-x-x-x-x-|
s|--o---o---f---o-|--o---o---f---o-|--o-----------o-|----o-----o-----|
b|oo-ooo--o---o---|oo-ooo--o---o---|---------------o|o----oo-o----o-o|


  /------12------\
h|x-x-x-x-x-x-x-x-|----------------|
s|----o-------o---|----------------|----rrrrrrrrrrrr|
b|o-oo-oooo-o-----|----------------|

                   /-------5------\
h|----------------|----------------|--------xxxxx---|
r|----------------|xxxxxxxxxxxxxxxx|xxxxxxxxXXXXX---|
s|----------------|----------------|--------------o-|

  /------3-------\
h|x-x-x-x-x-x-x-x-|x-x-x-x-x-x-x-x-|x-x-x-x-x-x-x-x-|x-x-x-x-x-x-x-x-|
s|----o----o--o--o|----o----o--oo-o|----o----o--o--o|----o----o--o--o|
b|o-oo-o--o-oo----|o-oo-o--o-oo----|o-oo-o--o-oo----|o-oo-o--o-oo----|

h|x-x-x-x-x-x-x-x-|x-x-x-x-x-x-x-x-|
s|----o----o--o--o|-o--o----o--o-o-|
b|o-oo-o--o-oo----|--oo-o--o-oo----|

h|x-x-x-x-x-x-xxx-|x-x-x-x-x-x-x-x-|x-x-x-x-x-x-xx--|x-x-x-x-+-+-+-+-|
s|----o-------o--o|----o-------o---|----o-------o---|----o-----o-----|
b|o-o--o--o-oo----|o-o--o--o-oo----|o-o--o--o-oo----|o-o--o----------|

h|+-x-x-x-x-x-xxx-|x-x-x-x-x-x-x-x-|x-x-x-x-x-x-xx--|-------X--------|
s|----o-------o--o|----o-------o---|----o-------o---|o-oooooo--------|
b|o-o--o--o-oo----|o-o--o--o-oo----|o-o--o--o-oo----|----------------|

fin

	  

Solicitar el vídeo de "Ruido" - Descargar Ruido mp3

No existe una video leccione para esta canción

solicitar
Aumentar uno tonoAumentar uno tono
Aumentar uno semi-tonoAumentar uno semi-tono
Disminuir uno semi-tonoDisminuir uno semi-tono
Disminuir uno tonoDisminuir uno semi-tono
140

Envie sus comentários.

0 comentários

 
LosAcordes
Buscar
auto avanzar rasgueos aumentar disminuir cambiar color
losacordes exhibir acordes losacordes youTube video losacordes ocultar tabs losacordes cambiar notación losacordes ir hacia arriba losacordes