A B C D E F G H I J K L M N O P Q R S T U V X Y Z 0-9
Los Prisioneros

Início > Los Prisio... > acordes

Los Prisioneros

La Voz De Los 80?

Dificultad:Ningún gradoNingún grado

tuner corregir añadir para songbook version para impresion version de texto version rtf e-mail
acordestablaturabajobateríaarmónicaflautacavacopiano Guitar Pro
acordes

La Voz De Los 80?

	  

Key of tab:                                     Band: Los prisioneros 
h=hi-hat   ho=open hi-hat                       Tabber:Rafael Silva 
r=ride                                          Drummer: Miguel Tapia 
c=crash                                         Time: 4/4
t=tom1                                          Cd: La voz de los 80?
T=tom2     
f=floor tom
s=snare
b=bass drum


(-----4 times----)

r|-x-x-x-x-x-x-x-x-|
c|-----------------|
t|-----------------|
T|-----------------|
f|-----------------|
s|-----s-s-----s-s-|
b|-0-0-----0-0-----|


r|---x-x-x-x-x-x-x-|
c|-x---------------|
t|-----------------|
T|-----------------|
f|-----------------|
s|-----s-s-----s-s-|
b|-0-0-----0-0-----|

(-----4 times----)

r|-x-x-x-x-x-x-x-x-|
c|-----------------|
t|-----------------|
T|-----------------|
f|-----------------|
s|-----s-s-----s-s-|
b|-0-0-----0-0-----|



h|---x-x-x-x-x-x-x-||-x-x-x-x-x-x-x-x-||-x-x-x-x-x-x-x-x-||-x-x-x-x-x-x-x-x-|
c|-x---------------||-----------------||-----------------||-----------------|
t|-----------------||-----------------||-----------------||-----------------|
T|-----------------||-----------------||-----------------||-----------------|
f|-----------------||-----------------||-----------------||-----------------|
s|-----s-------s---||-----s-------s---||-----s-------s---||-----s-------s---|
b|-0-------0-------||-0-------0-------||-0-------0-------||-0-------0-------|

h|-x-x-x-x-x-x-x-x-||-x-x-x-x-x-x-x-x-||-x-x-x-x-x-x-x-x-||-x-x-x-x-x-x-x-x-|
c|-----------------||-----------------||-----------------||-----------------|
t|-----------------||-----------------||-----------------||-----------------|
T|-----------------||-----------------||-----------------||-----------------|
f|-----------------||-----------------||-----------------||-----------------|
s|-----s-------s---||-----s-------s---||-----s-------s---||-----s-------s---|
b|-0-------0-------||-0-------0-------||-0-------0-------||-0-------0-------|

h|---x-x-x-x-x-x-x-||-x-x-x-x-x-x-x-x-||-x-x-x-x-x-x-x-x-||-x-x-x-x-x-x-x-x-|
c|-x---------------||-----------------||-----------------||-----------------|
t|-----------------||-----------------||-----------------||-----------------|
T|-----------------||-----------------||-----------------||-----------------|
f|-----------------||-----------------||-----------------||-----------------|
s|-----s-------s---||-----s-------s---||-----s-------s---||-----s-------s---|
b|-0-------0-------||-0-------0-------||-0-------0-------||-0-------0-------|






h|-x-x-x-x-x-x-x-x-||-x-x-x-x-x-x-x-x-||-x-x-x-x-x-x-x-x-||-x-x-x-x-x-x-x-x-|
c|-----------------||-----------------||-----------------||-----------------|
t|-----------------||-----------------||-----------------||-----------------|
T|-----------------||-----------------||-----------------||-----------------|
f|-----------------||-----------------||-----------------||-----------------|
s|-----s-------s---||-----s-------s---||-----s-------s---||-----s-------s---|
b|-0-------0-------||-0-------0-------||-0-------0-------||-0-------0-------|





(-----4 times----)

r|-x-x-x-x-x-x-x-x-|
c|-----------------|
t|-----------------|
T|-----------------|
f|-----------------|
s|-----s-s-----s-s-|
b|-0-0-----0-0-----|


h|---x-x-x-x-x-x-x-||-x-x-x-x-x-x-x-x-||-x-x-x-x-x-x-x-x-||-x-x-x-x-x-x-x-x-|
c|-x---------------||-----------------||-----------------||-----------------|
t|-----------------||-----------------||-----------------||-----------------|
T|-----------------||-----------------||-----------------||-----------------|
f|-----------------||-----------------||-----------------||-----------------|
s|-----s-------s---||-----s-------s---||-----s-------s---||-----s-------s---|
b|-0-------0-0-----||-0-------0-0-----||-0-------0-0-----||-0-------0-0-----|

h|-x-x-x-x-x-x-x-x-||-x-x-x-x-x-x-x-x-||-x-x-x-x-x-x-x-x-||-x-x-x-x-x-x-x-x-|
c|-----------------||-----------------||-----------------||-----------------|
t|-----------------||-----------------||-----------------||-----------------|
T|-----------------||-----------------||-----------------||-----------------|
f|-----------------||-----------------||-----------------||-----------------|
s|-----s-------s---||-----s-------s---||-----s-------s---||-----s-------s---|
b|-0-------0-0-----||-0-------0-0-----||-0-------0-0-----||-0-------0-0-----|

h|---x-x-x-x-x-x-x-||-x-x-x-x-x-x-x-x-||-x-x-x-x-x-x-x-x-||-x-x-x-x-x-x-x-x-|
c|-x---------------||-----------------||-----------------||-----------------|
t|-----------------||-----------------||-----------------||-----------------|
T|-----------------||-----------------||-----------------||-----------------|
f|-----------------||-----------------||-----------------||-----------------|
s|-----s-------s---||-----s-------s---||-----s-------s---||-----s-------s---|
b|-0-------0-0-----||-0-------0-0-----||-0-------0-0-----||-0-------0-0-----|

h|-x-x-x-x-x-x-x-x-||-x-x-x-x-x-x-x-x-||-x-x-x-x-x-x-x-x-||-x-x-x-----------|
c|-----------------||-----------------||-----------------||-----------------|
t|-----------------||-----------------||-----------------||-----------------|
T|-----------------||-----------------||-----------------||-----------------|
f|-----------------||-----------------||-----------------||---------f-f-f-f-|
s|-----s-------s---||-----s-------s---||-----s-------s---||-----s---s-s-s-s-|
b|-0-------0-0-----||-0-------0-0-----||-0-------0-0-----||-0---------------|

CHORUS

(------3  times----)

r|---x-x-x-x-x-x-x-| 
c|-x---------------|
t|-----------------|
T|-----------------|
f|-----------------|
s|-----s-------s---|
b|-0-------0-0-----|





r|-x-x-x-x-x-x-x-x-|
c|-----------------|
t|-----------------|
T|-----------------|
f|-----------------|
s|-----s-------s---|
b|-0-------0-0-----|

(------3  times----)

r|---x-x-x-x-x-x-x-| 
c|-x---------------|
t|-----------------|
T|-----------------|
f|-----------------|
s|-----s-------s---|
b|-0-------0-0-----|

r|-x-x-x-x-x-x-x-x-|
c|-----------------|
t|-----------------|
T|-----------------|
f|-----------------|
s|-----s-------s---|
b|-0-------0-0-----|

r|---x-x-x-x-x-x-x-| 
c|-x---------------|
t|-----------------|
T|-----------------|
f|-----------------|
s|-----s-------s---|
b|-0-------0-0-----|

r|---x-x-x-x-x-x-x-|
c|-x---------------|
t|-----------------|
T|-----------------|
f|-----------------|
s|-----s-------s---|
b|-0-------0-0-----|


(-----4 times----)

r|-x-x-x-x-x-x-x-x-|
c|-----------------|
t|-----------------|
T|-----------------|
f|-----------------|
s|-----s-s-----s-s-|
b|-0-0-----0-0-----|


h|---x-x-x-x-x-x-x-||-x-x-x-x-x-x-x-o-||-x-x-x-x-x-x-x-x-||-x-x-x-x-x-x-x-o-|
c|-x---------------||-----------------||-----------------||-----------------|
t|-----------------||-----------------||-----------------||-----------------|
T|-----------------||-----------------||-----------------||-----------------|
f|-----------------||-----------------||-----------------||-----------------|
s|-----s-------s---||-----s-------s---||-----s-------s---||-----s-------s---|
b|-0-------0-------||-0-------0-------||-0-------0-------||-0-------0-------|

h|-x-x-x-x-x-x-x-x-||-x-x-x-x-x-x-x-o-||-x-x-x-x-x-x-x-x-||-x-x-x-x-x-x-x-o-|
c|-----------------||-----------------||-----------------||-----------------|
t|-----------------||-----------------||-----------------||-----------------|
T|-----------------||-----------------||-----------------||-----------------|
f|-----------------||-----------------||-----------------||-----------------|
s|-----s-------s---||-----s-------s---||-----s-------s---||-----s-------s---|
b|-0-------0-------||-0-------0-------||-0-------0-------||-0-------0-------|


h|-x-x-x-x-x-x-x-x-||-x-x-x-x-x-x-x-o-||-x-x-x-x-x-x-x-x-||-x-x-x-x-x-x-x-o-|
c|-----------------||-----------------||-----------------||-----------------|
t|-----------------||-----------------||-----------------||-----------------|
T|-----------------||-----------------||-----------------||-----------------|
f|-----------------||-----------------||-----------------||-----------------|
s|-----s-------s---||-----s-------s---||-----s-------s---||-----s-------s---|
b|-0-------0-------||-0-------0-------||-0-------0-------||-0-------0-------|

h|-x-x-x-x-x-x-x-x-||-x-x-x-x-x-x-x-o-||-x-x-x-x-x-x-x-x-||-x---------------|
c|-----------------||-----------------||-----------------||-----------------|
t|-----------------||-----------------||-----------------||-----------------|
T|-----------------||-----------------||-----------------||-----------------|
f|-----------------||-----------------||-----------------||---f-f-f-f-f-f-f-f|
s|-----s-------s---||-----s-------s---||-----s-------s---||------------------|
b|-0-------0-------||-0-------0-------||-0-------0-------||-0----------------|

CHORUS

r|---x-x-x-x-x-x-x-||-x-x-x-x-x-x-x-x-||-x-x-x-x-x-x-x-x-||-x-x-x-x-x-x-x-x-|
c|-x---------------||-----------------||-----------------||-----------------|
t|-----------------||-----------------||-----------------||-----------------|
T|-----------------||-----------------||-----------------||-----------------|
f|-----------------||-----------------||-----------------||-----------------|
s|-----s-------s---||-----s-------s---||-----s-------s---||-----s-------s---|
b|-0-------0-------||-0-------0-------||-0-------0-------||-0-------0-------|

r|---x-x-x-x-x-x-x-||-x-x-x-x-x-x-x-x-||-x-x-x-x-x-x-x-x-||-x-x-x-x-x-x-x-x-|
c|-x---------------||-----------------||-----------------||-----------------|
t|-----------------||-----------------||-----------------||-----------------|
T|-----------------||-----------------||-----------------||-----------------|
f|-----------------||-----------------||-----------------||-----------------|
s|-----s-------s---||-----s-------s---||-----s-------s---||-----s-------s---|
b|-0-------0-------||-0-------0-------||-0-------0-------||-0-------0-------|

r|---x-x-x-x-x-x-x-||-x-x-x-x-x-x-x-x-||-x-x-x-x-x-x-x-x-||-x-x-x-x-x-x-x-x-|
c|-x---------------||-----------------||-----------------||-----------------|
t|-----------------||-----------------||-----------------||-----------------|
T|-----------------||-----------------||-----------------||-----------------|
f|-----------------||-----------------||-----------------||-----------------|
s|-----s-------s---||-----s-------s---||-----s-------s---||-----s-------s---|
b|-0-------0-------||-0-------0-------||-0-------0-------||-0-------0-------|

r|---x-x-x-x-x-x-x-||-x-x-x-x-x-x-x-x-||---x-x-x-x-x-x-x-||-x-x-x-x-x-x-x-x-|
c|-x---------------||-----------------||-x---------------||-----------------|
t|-----------------||-----------------||-----------------||-----------------|
T|-----------------||-----------------||-----------------||-----------------|
f|-----------------||-----------------||-----------------||-----------------|
s|-----s-------s---||-----s-------s---||-----s-------s---||-----s-------s---|
b|-0-------0-------||-0-------0-------||-0-------0-------||-0-------0-------|


r|-x-x-x-x-x-x-x-x-||-x-x-x-x-x-x-x-x-||---x-x-x-x-x-x-x-||-x-x-x-x-x-x-x-x-|
c|-----------------||-----------------||-----------------||-----------------|
t|-----------------||-----------------||-----------------||-----------------|
T|-----------------||-----------------||-----------------||-----------------|
f|-----------------||-----------------||-----------------||-----------------|
s|-----s-------s---||-----s-------s---||-----s-------s---||-----s-------s---|
b|-0-------0-------||-0-------0-------||-0-------0-------||-0-------0-------|





r|-x-x-x-x-x-x-x-x-||-x-x-x-x-x-x-x-x-||---x-x-x-x-x-x-x-||-x-x-x-x-x-x-x-x-|
c|-----------------||-----------------||-x---------------||-----------------|
t|-----------------||-----------------||-----------------||-----------------|
T|-----------------||-----------------||-----------------||-----------------|
f|-----------------||---------f-f-f-f-||-----------------||-----------------|
s|-----s-------s---||-----s---s-s-s-s-||-----s-------s---||-----s-------s---|
b|-0-------0-------||-0---------------||-0-------0-0-----||-0-0-----0-0-----|


r|---x-x-x-x-x-x-x-||---x-x-x-x-x-x-x-|
c|-x---------------||-x---------------|
t|-----------------||-----------------|
T|-----------------||-----------------|
f|-----------------||-----------------|
s|-----s-------s---||-----s-------s---|
b|-0-------0-0-----||-0-------0-0-----|

CHORUS

r|-----------------||-----------------||-----------------||-----------------|
c|-x---------------||-----------------||-----------------||-----------------|
t|-----------------||-----------------||-----------------||-----------------|
T|-----------------||-----------------||-----------------||-----------------|
f|-----------------||-----------------||-----------------||-----------------|
s|-----------------||-----------------||-----------------||-----------------|
b|-0----0----0----0||-0----0----0----0||-0----0----0----0||-0----0----0----0|

r|-----------------||-----------------||-----------------||-----------------|
c|-----------------||-----------------||-----------------||-----------------|
t|-----------------||-----------------||-----------------||-----------------|
T|-----------------||-----------------||-----------------||-----------------|
f|-----------------||-----------------||-----------------||-----------------|
s|-----------------||-----------------||-----------------||-----------------|
b|-0----0----0----0||-0----0----0----0||-0----0----0----0||-0----0----0----0|

r|-----------------||-----------------||-----------------||-----------------|
c|-----------------||-----------------||-----------------||-----------------|
t|-----------------||-----------------||-----------------||-----------------|
T|-----------------||-----------------||-----------------||-----------------|
f|-----------------||-----------------||-----------------||-----------------|
s|------s----------||------s----------||------s----------||------s----------|
b|-0----0----0----0||-0----0----0----0||-0----0----0----0||-0----0----0----0|

r|-----------------||-----------------||-----------------||-----------------|
c|-----------------||-----------------||-----------------||-----------------|
t|-----------------||-----------------||-----------------||-----------------|
T|-----------------||-----------------||-----------------||-----------------|
f|-----------------||-----------------||-----------------||---f-f----f----f-|
s|------s----------||------s----------||------s----------||---s-s----s----s-|
b|-0----0----0----0||-0----0----0----0||-0----0----0----0||-----------------|

r|---x-x-x-x-x-x-x-||-x-x-x-x-x-x-x-x-||-x-x-x-x-x-x-x-x-||-x-x-x-x-x-x-x-x-|
c|-x---------------||-----------------||-----------------||-----------------|
t|-----------------||-----------------||-----------------||-----------------|
T|-----------------||-----------------||-----------------||-----------------|
f|-----------------||-----------------||-----------------||-----------------|
s|-----s-------s---||-----s-------s---||-----s-------s---||-----s-------s---|
b|-0-------0-0-----||-0-------0-0-----||-0-------0-0-----||-0-------0-0-----|

r|-x-x-x-x-x-x-x-x-||-x-x-x-x-x-x-x-x-||-x-x-x-x-x-x-x-x-||-----------------|
c|-----------------||-----------------||-----------------||-----------------|
t|-----------------||-----------------||-----------------||-----------------|
T|-----------------||-----------------||-----------------||-----------------|
f|-----------------||-----------------||-----------------||---f-f-f-f-f-f-f-f|
s|-----s-------s---||-----s-------s---||-----s-------s---||---s-s-s-s-s-s-s-s|
b|-0-------0-0-----||-0-------0-0-----||-0-------0-0-----||-0---------------|




(------3  times----)

r|---x-x-x-x-x-x-x-| 
c|-x---------------|
t|-----------------|
T|-----------------|
f|-----------------|
s|-----s-------s---|
b|-0-------0-0-----|
r|-x-x-x-x-x-x-x-x-|
c|-----------------|
t|-----------------|
T|-----------------|
f|-----------------|
s|-----s-------s---|
b|-0-------0-0-----|

r|---x-x-x-x-x-x-x-| 
c|-x---------------|
t|-----------------|
T|-----------------|
f|-----------------|
s|-----s-------s---|
b|-0-------0-0-----|

r|-----------------|
c|-----------------|
t|-----------------|
T|-----------------|
f|-f-f-f-f-f-f-f---|
s|-s-s-s-s-s-s-s-ss|
b|-0---------------|

(------2  times----)

r|---x-x-x-x-x-x-x-| 
c|-x---------------|
t|-----------------|
T|-----------------|
f|-----------------|
s|-----s-------s---|
b|-0-------0-0-----|

r|-x-x-x-x-x-x-x-x-|
c|-----------------|
t|-----------------|
T|-----------------|
f|-----------------|
s|-----s-------s---|
b|-0-------0-0-----|

r|---x-x-x-x-x-x-x-| 
c|-x---------------|
t|-----------------|
T|-----------------|
f|-----------------|
s|-----s-------s---|
b|-0-------0-0-----|

r|---x-x-x-x-x-x-x-|
c|-x---------------|
t|-----------------|
T|-----------------|
f|-----------------|
s|-----s-------s---|
b|-0-------0-0-----|


(-----6 times----)

r|-x-x-x-x-x-x-x-x-|
c|-----------------|
t|-----------------|
T|-----------------|
f|-----------------|
s|-----s-s-----s-s-|
b|-0-0-----0-0-----|

c|-x---------------|
b|-b---------------|

	  

Solicitar el vídeo de "La Voz De Los 80?" - Descargar La Voz De Los 80? mp3

No existe una video leccione para esta canción

solicitar
Aumentar uno tonoAumentar uno tono
Aumentar uno semi-tonoAumentar uno semi-tono
Disminuir uno semi-tonoDisminuir uno semi-tono
Disminuir uno tonoDisminuir uno semi-tono
140

Envie sus comentários.

0 comentários

 
LosAcordes
Buscar
auto avanzar rasgueos aumentar disminuir cambiar color
losacordes exhibir acordes losacordes youTube video losacordes ocultar tabs losacordes cambiar notación losacordes ir hacia arriba losacordes