Wild Cherry

Início > Wild Cherr... > acordes

Play That Funky Music Tablatura Bajo

Wild Cherry

Dificultad:ExpertoExperto

por Acelot

tuner correct add songbook print version text version salvar en e-mail
acordesukuleletablaturabaixobateríaarmónicaflautacavacopiano Guitar Pro
acordes

Play That Funky Music

(Rob Parissi)

Tono:  E
	  
Intro and Verse:  


G|-----------------------------------|  
D|-----------------------------------|  
A|---5-7-------5h7---5-7-------5h7---|  
E|-0-----0-5h7-----0-----0-5h7-----0-|  

Chorus: 

G|---------------------------------------------------------|  
D|---------5-5-------3-5---5-5-------3-5---5-5-------3-5---|  
A|-------------0-3-5-----------0-3-5-----------0-3-5-------|  
E|-0-1-2-3---------------3---------------3---------------3-|  


G|------------------------------------7---7-------------------|  
D|-5-5-------3-5---5-5-------8-8-8/10---9---9-7-9-7-9-7-5-----|  
A|-----0-3-5----------------------------------------------7-5-|  
E|---------------3-----3-5-6----------------------------------|  

G|-----------------------------------------------------6---7---|  
D|-------------------------------------------------------------|  
A|---5-7-------5-7---5-7-------5-7---5-7-------5-7---4---5---5-|  
E|-0-----0-5-7-----0-----0-5-7-----0-----0-5-7-----0-----------|  

	  

No existe una video leccione para esta canción

request
LosAcordes
Buscar
auto avanzar rasgueos aumentar disminuir cambiar color esconder acordes gráficos
losacordes exhibir acordes losacordes youTube video losacordes ocultar tabs losacordes ir hacia arriba losacordes