The Cranberries

Início > The Cranbe... > acordes

Ridiculous Thoughts Tablatura Bajo

The Cranberries

Dificultad:Ningún gradoNingún grado

tuner correct add songbook print version text version salvar en e-mail
acordesukuleletablaturabaixobateríaarmónicaflautacavacopiano Guitar Pro
acordes

Ridiculous Thoughts

Tono:  Am
	  




Standard Tunning

Intro
--------------------------------------------------
--------------------------------------------------
--12~--12~--12/10--10~--10/8--8~--8\12------------
--------------------------------------------------

Verse I
--------------------------------------------------
--------------------------------------------------
--------3--3--------------3-5---------------------
--5--5--------3-3-3-3-3-5-------------------------

Verse II
--------------------------------------------------
--------------------------------------------------
--------3--3----------------3-5-------------------
--5--5--------3---3---3---5------------------------

Verse III
--------------------------------------------------
--------------------------------------------------
--------3--3--------------------------------------
--5--5--------3-3-3-3-3-3-3-3---------------------

Chorus I (* = play the note 8 times)
--------------------------------------------------
--------------------------------------------------
--------------------------------------------------
--1*----0*----5*----3*----------------------------

Chorus II
--------------------------------------------------
--------------------------------------------------
--------------------------------------------------
--1*----0*----5*----5*----------------------------

Order:
Intro (x6)
Verse I (x5)
Verse II
Verse I (x3)
Verse III
Chorus I
Chorus II
Verse I (x3)
Verse II
Verse I (x3)
Verse III
Chorus I
Chorus II
Chorus I
Chorus II (repeat 'til the end)

	  

No existe una video leccione para esta canción

request
LosAcordes
Buscar
auto avanzar rasgueos aumentar disminuir cambiar color esconder acordes gráficos
losacordes exhibir acordes losacordes youTube video losacordes ocultar tabs losacordes ir hacia arriba losacordes