The Beach Boys

Início > The Beach ... > acordes

Wonderful Tablatura Bajo

The Beach Boys

Dificultad:Ningún gradoNingún grado

por lucicamargo

tuner correct add songbook print version text version salvar en e-mail
acordesukuleletablaturabaixobateríaarmónicaflautacavacopiano Guitar Pro
acordes

Wonderful

	  
verse 1: "She belongs there, left with her liberty..." 
G|-----------------------------------------------------------------------------| 
D|---------------------------------------------------------------------6-8-9---| 
A|----------------------------------------------------------------7-9----------| 
E|-----------------------------------------------------------------------------| 

verse 2: "She knew how to gather the forest when..." 
G|---------------------------------------------------------------------------| 
D|-11---9-8-------------------11-------9----------------8---9---11---9---11--| 
A|-----------11--9---11---8--------9-------11---8---9------------------------| 
E|---------------------------------------------------------------------------| 

verse 3: "Farther down the path was a mystery..." 
G|---------------------------------------------------------------------------------------| 
D|-13-11---9-8-------------------11-------9----------------------------------------6-8-9-| 
A|--------------11--9---11---8--------9-------11------------8--------8--------7-9--------| 
E|-------------------------------------------------9---11-------11-------11--------------| 

verse 4: "All fall down and lost in the mystery..." 
G|---------------------------------------------------------------------------| 
D|-11---9-8-------------------11-------9----------------8---9---11---9---11--| 
A|-----------11--9---11---8--------9-------11---8---9------------------------| 
E|---------------------------------------------------------------------------| 

Verse 5: "She'll return in love with her liberty..." 
G|------------------------------------------------------------------------------------------| 
D|-13-11---9-8-------------------11-------9----------------------------------------6-8-9-11-| 
A|--------------11--9---11---8--------9-------11------------8--------8--------7-9-----------| 
E|-------------------------------------------------9---11-------11-------11-----------------| 
	  

No existe una video leccione para esta canción

request
LosAcordes
Buscar
auto avanzar rasgueos aumentar disminuir cambiar color esconder acordes gráficos
losacordes exhibir acordes losacordes youTube video losacordes ocultar tabs losacordes ir hacia arriba losacordes