Panic! At The Disco

Início > Panic! At ... > acordes

Nine In The Afternoon Tablatura Bajo

Panic! At The Disco

Dificultad:PrincipiantePrincipiante

por P!ATD

tuner correct add songbook print version text version salvar en e-mail
acordesukuleletablaturabaixobateríaarmónicaflautacavacopiano Guitar Pro
acordes

Nine In The Afternoon

Áño: 2008 - Álbum: Pretty. Odd.

	  Intro/into verse (Piano starts....) (bass comes in at 4 seconds) 
G-----------------------------| x 1 |-----------------------------| x1 
D-----------------------------|     |-----------------------------| 
A-----------------------------|     |---------6-7-----------------| 
E-------7x--------------------|     |-4-4-4-4---------------------| 

G------------------------------------------------------------------------| x1 
D-----------------------------------------------4~-----------------------| 
A------------------------------------------4-6-----------6-7-------------| 
E---------------7-7-7-7-7-7-7-77-7-7-7-7-7---------4-4-4-4---------------| 

G-----------------------------------------------------------------------| 
D-----------------------------------------------------------------------| 
A------4-6-----4-6-----4-6-----4-6---66-7-------------------------------| 
E--4-4-----3-3-----2-2-----3-3-----4~-----------------------------------| 

Verse (Into a place where thoughts can bloom…) 
G-------------------------------------------------------------------------| 
D----------------------------4-------------------------------------------4| 
A------------------------4-6---------66-7----------------------------4-6--| 
E------7x-------7x-----7------4-4-4-4------7-7-7-7-7-7-7-77-7-7-7-7-7-----| 

G -------------------------------|      
D--------------------------------|         
A---------66-7-------------------|         
E--4-4-4-4-----------------------|         

Chorus (Its nine in the afternoon…) 
G------------------------------------------------------------6-8-9----------| 
D------------------------------------------------------6-8-9----------------| 
A-----------------------------------6-6-6-6-6-6-6-6-7-9---------------------| 
E---7-7-7-7-7-7-7-6-4-4-4-4-4-4-4-4-----------------------------------------| 

G----------------------------------------------------------------| 
D----------------------------------------------------------------| 
A-----------------------------------6-6-6-6-66-7-----------------| 
E---7-7-7-7-7-7-7-6-4-4-4-4-4-4-4-4--------------7X--------------| 

Pre Chorus (BREAK DOWN) 
G------------------------------------------------------------------------| 
D---------------------------4-------------------------------------------4| 
A-----------------------4-6---------66-7----------------------------4-6--| 
E---------7x--7x--7x--7------4-4-4-4------7-7-7-7-7-7-7-77-7-7-7-7-7-----| 

G-----------------------------|  
D-----------------------------| 
A---------66-7----------------| 
E-4-4-4-4---------------------| 


(Back to the Street, Back to the place…) 
G-----------------------------------------------------------------------| 
D-----------------------------------------------------------------------| 
A------4-6-----4-6-----4-6-----4-6-----4-6-----4-6----4-6----4-6---6-7--| 
E--4-4-----3-3-----2-2-----3-3-----4-4-----3-3-----2-2----3-3----4~-----| 

FINAL Chorus X2 
G------------------------------------------------------------6-8-9----------| 
D------------------------------------------------------6-8-9----------------| 
A-----------------------------------6-6-6-6-6-6-6-6-7-9---------------------| 
E---7-7-7-7-7-7-7-6-4-4-4-4-4-4-4-4-----------------------------------------| 

PIANO BREAKDOWN PART 
G-----------------------------------------| 
D-----------------------------------------| 
A-----------------6~-----7~---------------| 
E---7~----4~------------------------------| 

INSTRUMENTAL OUTRO x2 
G---------------------------------8-8-8-8-8-8-8-8---------6-8-9-----------| 
D-9-9-9-9-9-9-9-8-6-6-6-6-6-6-6-6--------------------6-8-9----------------| 
A------------------------------------------------7-9----------------------| 
E-------------------------------------------------------------------------| 

INSTRUMENTAL OUTRO (CONTINUED) 
G-----------------8~---9~---------------------------| 
D-9~----8~----6~-----------9~-----------------------| 
A---------------------------------------------------| 
E---------------------------------------------------| 
	  

No existe una video leccione para esta canción

request
LosAcordes
Buscar
auto avanzar rasgueos aumentar disminuir cambiar color esconder acordes gráficos
losacordes exhibir acordes losacordes youTube video losacordes ocultar tabs losacordes ir hacia arriba losacordes