A B C D E F G H I J K L M N O P Q R S T U V X Y Z 0-9
Led Zeppelin

Início > Led Zeppel... > acordes

Led Zeppelin

Ramble On

Dificultad:Ningún gradoNingún grado

por miss-tyler

tuner corregir añadir para songbook version para impresion version de texto version rtf e-mail
acordestablaturabaixobateriaarmónicaflautacavacopiano Guitar Pro
acordes

Ramble On

Áño: 1969 - Álbum: Mothership 2CD/1DVD

	  G||--------------------|---------9/11---9------|---------13----11--------|  
D||---------9----------|--7--------------------|---------------------14--|  
A||--7-----------------|-----------------------|--7----------------------|  
E||--------------------|-----------------------|-------------------------|  
 
--------------------------------|--------------------|---------9/11---9--------|  
----11----------------11-14-11/-|--2------9----------|--7------------------11/-|  
----------14----12-14-----------|--7-----------------|-------------------------|  
--------------------------------|--------------------|-------------------------|  
 
---------13----11--------|--------------------------------|--------------------|  
--2------------------14--|----11----------------11-14-11/-|--2------9----------|  
--7----------------------|----------14----12-14-----------|--7-----------------|  
-------------------------|--------------------------------|--------------------|  
 
---------9/11---9--------|---------13----11--------|  
--7------------------11/-|--2------------------14--|  
-------------------------|--7----------------------|  
-------------------------|-------------------------|  
 
--------------------------------|--------------------|---------9/11---9--------|  
----11----------------11-14-11/-|--2------9----------|--7------------------11/-|  
----------14----12-14-----------|--7-----------------|-------------------------|  
--------------------------------|--------------------|-------------------------|  
 
---------13----11--------|--------------------------------|--------------------|  
--2------------------14--|----11----------------11-14-11/-|---------9----------|  
--7----------------------|----------14----12-14-----------|--7-----------------|  
-------------------------|--------------------------------|--------------------|  
 
---------9/11---9--------|---------13----11--------|  
--7------------------11/-|---------------------14--|  
-------------------------|--7----------------------|  
-------------------------|-------------------------|  
 
--------------------------------|---------------------|------------------------|  
----11----------------11-14-11/-|---------------------|--------------2-2-------|  
----------14----12-14-----------|---------------------|--0------4---------4-2--|  
--------------------------------|--0------2----4------|------------------------|  
 
----------------------|-------------------------|----------9--------------|  
----------------------|---------------2--2------|-------------------------|  
----------------------|--0--2----4---------4-2--|-------7---------4-------|  
--0------2----4----4--|-------------------------|--0-----------0-----7--7-|  
 
----------9-----7----7-------7-9-|-----------------------9-|  
--7-7-7-7---7-7----7---7-7-7-----|-------9-----------------|  
---------------------------------|--7-------7--------------|  
---------------------------------|--------------0--4--7----|  
 
----------9-------7-------7----9-|--------9-----------------|  
--7-7-7-7---7-7-7---7-7-7---7----|--------------------------|  
---------------------------------|--7---7----7------------7-|  
---------------------------------|---------------0--4--7----|  
 
----------9-----7----7-------6-9-|--------9-----------------|  
--7-7-7-7---7-7----7---7-7-7-----|------7-------------------|  
---------------------------------|--7--------7------------7-|  
---------------------------------|---------------0--4--7----|  
 
----------9-----7----7-7-8-9----|--------------------|---------9/11---9--------|  
--7-7-7-7---7-7----7----------7-|---------9----------|--7------------------11--|  
--------------------------------|--7-----------------|-------------------------|  
--------------------------------|--------------------|-------------------------|  
 
---------13----11----9--|----------------------9-----|--------------------|  
------------------------|----11----9----7-9/11---11/-|---------9----------|  
--7---------------------|----------------------------|--7-----------------|  
------------------------|----------------------------|--------------------|  
 
---------9/11---9--------|---------13----11----9--|----------------------9-----|  
--7------------------11/-|------------------------|----11----9----7-9/11---11--|  
-------------------------|--7---------------------|----------------------------|  
-------------------------|------------------------|----------------------------|  
 
--------------------|---------9/11---9---------|---------11-13---11----9--|  
---------9----------|--7----------------11--9--|--------------------------|  
--7-----------------|--------------------------|--7-----------------------|  
--------------------|--------------------------|--------------------------|  
 
----------------------9-----|--------------------|---------9/11---9---------|  
----11----9----7-9-11---11/-|---------9----------|--7----------------11--9--|  
----------------------------|--7-----------------|--------------------------|  
----------------------------|--------------------|--------------------------|  
 
---------11-13---11----9--|----------------------9-----|  
--------------------------|----11----9----7-9/11---11/-|  
--7-----------------------|----------------------------|  
--------------------------|----------------------------|  
 
----------9--------------|----------9-----7----7-------7-9-|  
-------------------------|--7-7-7-7---7-7----7---7-7-7-----|  
-------7---------4-------|---------------------------------|  
--0-----------0-----7--7-|---------------------------------|  
 
-----------------------9-|----------9-------7-------7----9-|  
-------9-----------------|--7-7-7-7---7-7-7---7-7-7---7----|  
--7-------7--------------|---------------------------------|  
--------------0--4--7----|---------------------------------|  
 
--------9-----------------|----------9-----7----7-------6-9-|  
--------------------------|--7-7-7-7---7-7----7---7-7-7-----|  
--7---7----7------------7-|---------------------------------|  
---------------0--4--7----|---------------------------------|  
 
--------9-----------------|----------9-----7----7-7-8-9----|  
------7-------------------|--7-7-7-7---7-7----7----------7-|  
--7--------7------------7-|--------------------------------|  
---------------0--4--7----|--------------------------------|  
 
------------------------|------------7---9-7-9--9-----|  
--7----7--7----7--------|-----5h7--7--------------5h7-|  
------------------7---7-|--0--------------------------|  
------------------------|-----------------------------|  
 
-----------------------------|-----------------------------|  
--7---7-7--7---7-7-7---------|--7---7-7--7----6/-11-12-14--|  
---------------------5h7-5h7-|-----------------------------|  
-----------------------------|-----------------------------|  
 
-------9-------------|---------11-11---9------|---------13----11----9--|  
----------9----------|--7---------------------|------------------------|  
--7------------------|------------------------|--7---------------------|  
---------------------|------------------------|------------------------|  
 
----------------------9-----|-------9-------------|---------9/11---9---------|  
----11----9----7-9/11---11/-|--2-------9----------|--7----------------11--9--|  
----------------------------|--7------------------|--------------------------|  
----------------------------|---------------------|--------------------------|  
 
---------13----11----9--|----------------------9-----|--------------------|  
------------------------|----11----9----7-9/11---11/-|--2------9----------|  
--7---------------------|----------------------------|--7-----------------|  
------------------------|----------------------------|--------------------|  
 
---------9/11-----9------|---------13----11----9--|----------------------9-----|  
--7------------------11/-|--2---------------------|----11----9----7-9/11---11/-|  
-------------------------|--7---------------------|----------------------------|  
-------------------------|------------------------|----------------------------|  
 
--------------------|---------9/11---9--------|---------13----11----9--|  
--2------9----------|--7------------------11/-|--2---------------------|  
--7-----------------|-------------------------|--7---------------------|  
--------------------|-------------------------|------------------------|  
 
----------------------9-----|---------------------|------------------------|  
----11----9----7-9/11---11/-|---------------------|---------------2--------|  
----------------------------|---------------------|--0--2----4--------4-2--|  
----------------------------|--0------2----4------|------------------------|  
 
----------------------|-------------------------|-------------------------|  
----------------------|---------------2-2-------|-------------------------|  
----------------------|--0--2----4---------4-2--|-------7---------------7-|  
--0------2----4----4--|-------------------------|--0-------0---0--4--7----|  
 
----------9-----7----7-------7-9-|--------9-----------------|  
--7-7-7-7---7-7----7---7-7-7-----|--------------------------|  
---------------------------------|--7---7----7------------7-|  
---------------------------------|---------------0--4--7----|  
 
----------9-----7----7-------7-9-|--------9-----------------|  
--7-7-7-7---7-7----7---7-7-7-----|--------------------------|  
---------------------------------|--7---7----7------------7-|  
---------------------------------|---------------0--4--7----|  
 
----------9-----7----7-------7-9-|--------9-----------------|  
--7-7-7-7---7-7----7---7-7-7-----|--------------------------|  
---------------------------------|--7---7----7------------7-|  
---------------------------------|---------------0--4--7----|  
 
----------9-----7----7-------7-9-|--------9-----------------|  
--7-7-7-7---7-7----7---7-7-7-----|--------------------------|  
---------------------------------|--7---7----7------------7-|  
---------------------------------|---------------0--4--7----|  
 
----------9-----7----7-------7-9-|--------9-----------------|  
--7-7-7-7---7-7----7---7-7-7-----|--------------------------|  
---------------------------------|--7---7----7------------7-|  
---------------------------------|---------------0--4--7----|  
 
----------9-----7----7-------7-9-||  
--7-7-7-7---7-7----7---7-7-7-----||  
---------------------------------||  
---------------------------------|| 

	  

Solicitar el vídeo de "Ramble On" - Descargar Ramble On mp3

No existe una video leccione para esta canción

solicitar
140

Envie sus comentários.

0 comentários

 
LosAcordes
Buscar
auto avanzar rasgueos aumentar disminuir cambiar color esconder acordes gráficos
losacordes exhibir acordes losacordes youTube video losacordes ocultar tabs losacordes cambiar notación losacordes ir hacia arriba losacordes